Cifra Club

Velha Roupa Colorida

Elis Regina

Tab de baixo: Principal
Introdução ...

1 , 2 , 3 , 4

(Riff 1)
g|------------------------------------------- 
d|------00~4-5-6-7---------------------------
a|---------------------0---------------------
e|-------------------------------------------

(Riff 2)
g|-------------------------------------------      --------------
d|---------6-7------5-6-7--------------------  3 X ----4--5--7---
a|----5-5-------5-5--------------------------      --------------
e|-------------------------------------------      --------------

Você não sente não ve ...(Riff 3) 2X

g|--------------------------------------------------      ----------  (No Lugar de ir
d|-----------------------------4-7-4---4-7-4--------  4X  -------2--   pro RÉ faz essa quebrada
a|-----7-4-7------5-2-5-----5--------5--------------      -----2---2   na quarta vez)
e|---5----------3-----------------------------------      ----------

Nunca mais teu pai falou She's Leaving home...

g|----------------------------------------------------------------------------------   
d|---------6-7------5-6-7----------------------------------------------6-7-----5-6-7  
a|----5-5-------5-5------------6-7-----5-6-7-------4-5------3-4-5--5-5-----5-5------      
e|-------------------------5-5-----5-5---------3-3-----3-3--------------------------  

e precisamos todos rejuvenecer (última vez)
g|---------------------------------------------------------    
d|------------------------------------4-5-6-7--------------  
a|-------7---4---7-----5---2--5--5-5-----------6-5---------   
e|---5-5------------3--------------------------------------
00:00 / 00:00
Outros vídeos desta música
Repetir
Outros vídeos desta música
Composição de Antonio Carlos Belchior
Colaboração e revisão:
  • Gustavo Campos
5.541 exibições

0 comentários

Ver todos os comentários

Conseguiu tocar?

1 Tocaram 1 Ainda não

Grave um vídeo tocando Velha Roupa Colorida e nos envie!

Entre para oCifra Club PRO

Tenha acesso a benefícios exclusivos no App e no Site

  • Chega de anúncios

  • Prioridade de compra em lançamentos

  • Mais recursos no app do Afinador

  • Atendimento Prioritário

  • Descontos nos produtos Cifra Club

  • Ajude a produzir mais conteúdo

00:00 / 00:00

Cifra Club Pro

Aproveite o Cifra Club com benefícios exclusivos e sem anúncios
Cifra Club Pro
Aproveite o Cifra Club com benefícios exclusivos e sem anúncios
OK