Cifra Club

Aprenda

To a Procura de Uma Rosa

Élton Peters

Cifra: Principal (violão e guitarra)
tom: G
Intro 2x: G  Am  C
E|--------3--5--5/7--5--3----------------------------------|
B|--3/5----------------------5--3--------------------------|
G|-------------------------------------4--2----------------|
D|----------------------------------------------5----------|
A|---------------------------------------------------------|
E|---------------------------------------------------------|

E|--------3--5--5/7--5--3-------3--5-3~--------------------|
B|--3/5-----------------------5----------------------------|
G|---------------------------------------------------------|
D|---------------------------------------------------------|
A|---------------------------------------------------------|
E|---------------------------------------------------------|

G                     D
Ao ver sua foto no espelho
Am              C            G
Choro e lembro grande decepção
G                     D
Você pra mim foi uma rosa
Am              C                  G      Am  C  G
Que só deixou espinhos no meu coração

Pré-Refrão:
G                 D                 C             G
Agora chega de sofrer, vou te esquecer começar do zero
G                        D              C               G
Ninguém vai mais me enganar eu já aprendi e to falando sério
G                      D               C               G
Vou arranjar outra paixão, que me dê amor, é tudo que quero

Refrão 2x:
G                   D                    C               G
Tô a procura de uma rosa que não tenha espinhos, seja amorosa
G             D                C                  G
Uma rosa delicada, bela e perfumada pra ser cultivada
G                  D                      C
Sei que é uma rosa rara, difícil de ser achada,
           G
É misteriosa
G                    D                        C
Mas não vou me preocupar, eu sei que vou te achar,
                    D                 G
nos lugares mais remotos do meu coração

( G  G#  A )

A                   E                    D               A
Tô a procura de uma rosa que não tenha espinhos, seja amorosa
A             E                D                   A
Uma rosa delicada, bela e perfumada pra ser cultivada
A                  E                      D
Sei que é uma rosa rara, difícil de ser achada,
           A
É misteriosa
A                    E                        D
Mas não vou me preocupar, eu sei que vou te achar,
                    E                 A
nos lugares mais remotos do meu coração
Composição de Élton Peters
Colaboração e revisão:
  • Elton Peters
72 exibições
    • ½ Tom
    • A
    • Bb
    • B
    • C
    • Db
    • D
    • Eb
    • E
    • F
    • F#
    • G
    • Ab
  • Adicionar à lista

    0 comentários

    Ver todos os comentários

    Conseguiu tocar?

    0 Tocaram 0 Ainda não

    Grave um vídeo tocando To a Procura de Uma Rosa e nos envie!

    00:00 / 00:00
    outros vídeos desta música
    repetir qualidade Automático
    Outros vídeos desta música
    00:00 / 00:00
    Automático

    Cifra Club Pro

    Aproveite o Cifra Club com benefícios exclusivos e sem anúncios
    Cifra Club Pro
    Aproveite o Cifra Club com benefícios exclusivos e sem anúncios
    OK