Cifra Club

Aprenda

Don't Be Cruel

Elvis Presley

Tab de baixo: Principal
                                                                           know I...      found...
                                                                           baby...        mad...
g-----------4-----|-----------4-----|-----------4-----|-----------4-----|--------------|--------4-----|
d-----4--7-----7--|-----4--7-----7--|-----4--7-----7--|-----4--7-----7--|*----4--7--4--|-----4-----7--|
a--5--------------|--5--------------|--5--------------|--5--------------|*-5-----------|--5-----------|
e-----------------|-----------------|-----------------|-----------------|--------------|--------------|

   sitting...                    you...                        least...                      cruel
   something...                  please...      past...        future...                     cruel
|--------------|--------------|--------------|--------------|--------------|--------4-----|------------|
|-----4--7--4--|--------3--4--|--5-----------|--5-----------|-----4--7--4--|-----4-----7--|------------|
|--5-----------|--5--7--------|-----7--5--7--|-----7--5--7--|--5-----------|--5-----------|--7---7--7--|
|--------------|--------------|--------------|--------------|--------------|--------------|------------|

              1____________________________ 2__________
                true                          true                          want...      love
|------------|-----------4--|--7--4--------|-----------4--|--7--5--4-----|------------|------------|
|------------|-----4--7-----|--------7--4-*|-----4--7-----|-----------7--|--5---5--5--|--7---7-----|
|---------4--|--5-----------|-------------*|--5-----------|--------------|------------|------------|
|--5---7-----|--------------|--------------|--------------|--------------|------------|---------5--|

   baby...      you...       of                         
|------------|------------|--7--4--------|--------------|
|--5---5--5--|--7---7--7--|--------7--4--|-----4--7--4--|
|------------|------------|--------------|--5-----------|
|------------|------------|--------------|--------------|

   don't...       of me...       make me...     way...  
   walk...        preacher...    let us...      do...          then...
|--------------|--------4-----|--------------|--------------|--------------|
|*----4--7--4--|-----4-----7--|-----4--7--4--|--------------|--------------|
|*-5-----------|--5-----------|--5-----------|--5--3--2-----|-----2--5--2--|
|--------------|--------------|--------------|-----------5--|--3-----------|

   love me...     know...        say...         cruel                     true
   have me...     know...        you...         cruel                     true
|--------------|--------------|--------------|------------|------------|-----------4--|--7--5--4-----|
|--------------|-----4--7--4--|-----4--7--4--|------------|------------|-----4--7-----|-----------7--|
|-----2--3--4--|--5-----------|--5-----------|--7---7--7--|---------4--|--5-----------|--------------|
|--3-----------|--------------|--------------|------------|--5---7-----|--------------|--------------|

                                                  1____________________________
   should...              really...    baby...      heart
   want no...             baby...
|------------|---------|------------|------------|-----------4--|--7--4--------|
|--5---5--5--|--7---7--|--5---5--5--|--7---------|-----4--7-----|--------7--4-*|
|------------|---------|------------|------0--4--|--5-----------|-------------*|
|------------|---------|------------|------------|--------------|--------------|

2_____________
   of                    cruel        to a...      true                          cruel
|--------------|------|------------|------------|--------------|--------------|------------|
|-----4--7--4--|------|------------|------------|-----4--7--4--|-----4--7--4--|------------|
|--5-----------|--5---|--7---7--7--|---------4--|--5-----------|--5-----------|--7---7-----|
|--------------|------|------------|--5---7-----|--------------|--------------|---------0--|

   to a...      true                          want no...   love      baby...      you I'm..    of
|------------|-----------4--|--7--5--4-----|------------|---------|------------|------4--6--|--7--4--------|----|
|------------|-----4--7-----|-----------7--|--5---------|---------|------5--5--|--7---------|--------7--4--|----|
|---------4--|--5-----------|--------------|------------|---------|------------|------------|--------------|--5-|
|--5---7-----|--------------|--------------|------3--3--|--5---5--|--3---------|------------|--------------|----|
Composição de Elvis Presley / Otis Blackwell
Colaboração e revisão:
  • valdir júnior
4.448 exibições

0 comentários

Mostrar mais comentários

Conseguiu tocar?

0 Tocaram 0 Ainda não

Grave um vídeo tocando Don't Be Cruel e mande pra gente!

00:00 / 00:00
outros vídeos desta música
repetir qualidade Automático
Outros vídeos desta música
00:00 / 00:00
Automático

Cifra Club Pro

Aproveite o Cifra Club com benefícios exclusivos e sem anúncios
7 dias grátis
Cifra Club Pro
Aproveite o Cifra Club com benefícios exclusivos e sem anúncios
7 dias grátis
OK