Cifra Club

Aprenda

Hound Dog

Elvis Presley

Tab de baixo: Principal
|-----------------|-----------------|-----------------|-----------------|
|--------------5--|--------------5--|--------------5--|--------------5--|
|----3----7-------|----3----7-------|----3----7-------|----3----7-------|
|-----------------|-----------------|-----------------|-----------------|

|--------------5--|--------------5--|-----------------|-----------------|
|----3----7-------|----3----7-------|--------------5--|--------------5--|
|-----------------|-----------------|----3----7-------|----3----7-------|
|-----------------|-----------------|-----------------|-----------------|

|-----------------|-----------------|-----------------|-----------------|
|-5-5-5-5-5-5-5-5-|-----------------|-2-2-2-2-2-2-2-2-|-----------------|
|-----------------|-5-5-5-5-5-5-5-5-|-----------------|-----------------|
|-----------------|-----------------|-----------------|-----------------|

assim por diante...
Composição de Jerry Leiber / Leiber / Mike Stoller / Stoller
Colaboração e revisão:
  • Renan Gonçalves
1.609 exibições

0 comentários

Mostrar mais comentários

Conseguiu tocar?

0 Tocaram 0 Ainda não

Grave um vídeo tocando Hound Dog e mande pra gente!

00:00 / 00:00
outros vídeos desta música
repetir qualidade Automático
Outros vídeos desta música
00:00 / 00:00
Automático
OK