Cifra Club

Love Me Tender

Elvis Presley

Cifra: Principal
exibições 381.222
Tom: D
 D       D/A    E7       E/G#
Love me tender,love me sweet
 A7    A/C#   D
Never let me go
 D        D/A     E7   E/G#
You have made my life complete
A7     A/C#     D
And I love you so

 D       F#    Bm       D7
Love me tender,  love true
G        Gm       D
All my dreams fulfilled
 D      B7     E7      E/G#
For my darling I love you
A7    A/C#    D
And I always will

 D       D/A    E7      E/G#
Love me tender,love me long
 A7      A/C#    D
Take me to your heart
 D         D/A   E7       E/G#
For it's there that  I belong
A7   A7/E    D
And we'll never part

 D       D/A    E7      E7/B
Love me tender,love me dear
 A7         A7/E  D
Tell me you are  mine
D        D/A          E7       E7/B
I'll be yours through all the years
 A7      A7/E    D
Till the end of time

[Solo]

E|---------------------------------------------------------|
B|---------------------------------------------------------|
G|---0---0--2---2--0-------0------0---0--2---2--0-------0--|
D|-0---4------2------4-2-4------0---4------2------4-2-4----|
A|---------------------------------------------------------|
E|---------------------------------------------------------|

E|---------------------------------------------------------|
B|-0-0-0--0-0-0--0------0--0-0-1---------------------------|
G|-----------------2-0-2----------2---2--0-------0---------|
D|----------------------------------2------4-2-4-----------|
A|---------------------------------------------------------|
E|---------------------------------------------------------|

E|---------------------------------------------------------|
B|---------------------------------------------------------|
G|---0---0--2---2--0-------0------0---0--2---2--0-------0--|
D|-0---4------2------4-2-4------0---4------2------4-2-4----|
A|---------------------------------------------------------|
E|---------------------------------------------------------|

E|---------------------------------------------------------|
B|-0-0-0--0-0-0--0-------0--0-0-1------------0-------------|
G|-----------------2-0-2----------2---2--0-----2-0---------|
D|----------------------------------2------4---------------|
A|---------------------------------------------------------|
E|---------------------------------------------------------|
Acordes para:
    Colaboração e revisão:

    0 comentários

      mostrar mais comentários

      Conseguiu tocar?

      27tocaram1ainda não

      Grave um vídeo tocando Love Me Tender e mande pra gente!

      00:00 / 00:00
      outros vídeos desta música
      repetirqualidadeautomática
      Outro vídeos desta música
        00:00 / 00:00
        automática
        OK