Cifra Club

Aprenda

Trying To Get To You

Elvis Presley

Cifra: Principal (violão e guitarra)
Tom: E
Intro: B7

                        E
I've been trav'lin'over mountains

Even thru the valleys too

|----------|---------------0---3---------|------------------------------|
|----------|-----------0-2---------------|-----------0-2-0--------------|
|----------|-------1---------------2---0-|-----0-2-----------2-0--------|
|----------|-----------------------------|-2-2-------------------2---1--|
|----------|-----------------------------|------------------------------|
|----------|-----------------------------|------------------------------|
                              A
I've benn trav'lin' night and day

|-----------0--------------------|-------------|-----------------|
|-----0-2-----3-0----------------|-0-----------|-----------------|
|---1---------------0h1----------|-1-----------|-----------------|
|-0---------------------2---0--2-|-2-----------|-----------------|
|--------------------------------|-------------|-0-0---0---0-4-0-|
|--------------------------------|-------------|-----------------|
                         B7                      E
I've been runnin all the way baby, try to get to you

|-----------------|-------0-3-7---5-3-0-------------|-----------0---------|
|-----------------|-0-2-------------------4-0-------|-------0-2-----3-0---|
|-----------------|---------------------------2---0-|-------------------2-|
|-----------------|---------------------------------|-2-------------------|
|-2-2---2---2---2-|---------------------------------|---------------------|
|-----------------|---------------------------------|---------------------|

                       E
Ever since I read your letter

Where you said you loved me true

|-----------0---3-0-------|---------------------0-3---0-|
|-------0-3---------3---0-|---------------0---3---------|
|-------------------------|-2-0-------0-2---------------|
|-2-----------------------|-------2---------------------|
|-------------------------|-----------------------------|
|-------------------------|-----------------------------|

                              A
I've benn trav'lin' night and day

|----------------------------------|
|-3-0---------------------0-----0--|
|---------0---------0---1---1------|
|-------2---2---0-0----------------|
|----------------------------------|
|----------------------------------|
                         B7                      E
 I've been runnin all the way baby, try to get to you

|------------|-5---------------|-7---------------|
|-0----------|-5---------------|-7---------------|
|-1----------|-6---------------|-8---------------|
|-2----------|-----------------|-----------------|
|------------|-----------------|-----------------|
|------------|-----------------|-----------------|

E7                     A
When I read your lovin'letter then my heart began
   E
to sing
                        A
There were many miles between us  But they didn't
       B7
mean a thing


                          E
I just had to reach you , Baby

Spite of all that I've been through

|---14b15-(14)-12-------------------|
|-----------------12-12----12-------|
|-----------------------14----14-12-|
|-----------------------------------|
|-----------------------------------|
|-----------------------------------|

                           A
I kept trav'lin' night and day


|---------------------------------|--------------0--------------|
|-----12---(12)-------------------|------------------3-0--------|
|-----------------14-12-----12----|----------------------0------|
|-----------------------14-----14-|-(14)------------------------|
|---------------------------------|-----------------------------|
|---------------------------------|-----------------------------|
                     B7                     E
I kept runin'all the way baby try to get to you

|------------0---------|-------------|------------------|
|--------0-2-----3-2-0-|-------------|------------------|
|----------------------|-------------|------------------|
|----------------------|-2-----------|------------------|
|----------------------|-------------|-0-0---0---0-4-0--|
|----------------------|-------------|------------------|

(solo) A  E  A  B7


|-----------------||--12-12---12-12-12---12-12-12---12-12-12---12-|
|-----------------||--12-12---12-12-12---12-12-12---12-12-12---12-|
|-----------------||--13-13---13-13-13---13-13-13---13-13-13---13-|
|-----------------||----------------------------------------------|
|-2-2---2---2---2-||----------------------------------------------|
|-----------------||----------------------------------------------|


|-12-12---12-12-12---12-12-12---12-12-12---12-|
|-12-12---12-12-12---12-12-12---12-12-12---12-|
|-13-13---13-13-13---13-13-13---13-13-13---13-|
|---------------------------------------------|
|---------------------------------------------|
|---------------------------------------------|

 
|-12-12---12-12-12---12-12-12---12-12-12---12-|
|-12-12---12-12-12---12-12-12---12-12-12---12-|
|-12-12---12-12-12---12-12-12---12-12-12---12-|
|---------------------------------------------|
|---------------------------------------------|
|---------------------------------------------|


|-12-14---12-14-12---14-12-14---12-14-12---14---|
|-12-14---12-14-12---14-12-14---12-14-12---14---|
|-12-14---12-14-12---14-12-14---12-14-12---14---|
|-----------------------------------------------|
|-----------------------------------------------|
|-----------------------------------------------|


|-16-16---16-16-16---16-16-16---16-15-15---15-|-14-----------|
|-16-16---16-16-16---16-16-16---16-15-15---15-|-14-----------|
|-16-16---16-16-16---16-16-16---16-15-15---15-|-14-----------|
|---------------------------------------------|--------------|
|---------------------------------------------|--------------|
|---------------------------------------------|--------------|


|-------------|-12-12---12\-------------------------|-----0-0-|
|-------------|-12-12---12\-5-5---5-7-7---7-8-8---8-|-9---0-0-|
|-------------|-13-13---13\-6-6---6-7-7---7-8-8---8-|-9---1-1-|
|-2-----------|-------------------------------------|---------|
|-------------|-------------------------------------|---------|
|-------------|-------------------------------------|---0-----|

                  E
If I had to do it over

That's exactly what I'd do
                          A
I would travel  night and day
                          B7                     E
And I'd still run all the way baby,try to get to you

E7                           A
There was nothing that could hold me or could keep
             E
me away from you
                       A
When your lovin'letter told me that you really
         B7
loved me true

                       E
Lord above, you know I love you

It was he that brought me through
                        A
When my way was dark at night he would shine his
          B7
brightest light

                            E   A  E  B7  E
When I was trying to get to you
Composição de Charlie Singleton / Rose Marie McCoy
Colaboração e revisão:
  • Diego Martins
  • Michael Alkmim
14.133 exibições
    • ½ Tom
    • A
    • Bb
    • B
    • C
    • Db
    • D
    • Eb
    • E
    • F
    • F#
    • G
    • Ab
  • Adicionar à lista

    0 comentários

    Mostrar mais comentários

    Conseguiu tocar?

    1 Tocaram 0 Ainda não

    Grave um vídeo tocando Trying To Get To You e mande pra gente!

    00:00 / 00:00
    outros vídeos desta música
    repetir qualidade Automático
    Outros vídeos desta música
    00:00 / 00:00
    Automático

    Cifra Club Pro

    Aproveite o Cifra Club com benefícios exclusivos e sem anúncios
    7 dias grátis
    Cifra Club Pro
    Aproveite o Cifra Club com benefícios exclusivos e sem anúncios
    7 dias grátis
    OK