I Have a Dream

Emigrate

Composição de: Richard Z Kruspe
tom: G
Drop D

Intro

Guitar 1                                                               |
E|--8-7-5-------8-|7-5-------8-7-5-|--8-7-5-------8-|7-5-------8-7-5-| |
B|5-------5---5---|----5---5-------|6-------6---6---|----6---6-------| |
G|----------------|----------------|----------------|----------------| |2x
D|----------------|----------------|----------------|----------------| |
A|----------------|----------------|----------------|----------------| |
D|----------------|----------------|----------------|----------------| |

Guitar 1                                                               |
E|--8-7-5-------8-|7-5-------8-7-5-|--8-7-5-------8-|7-5-------8-7-5-| |
B|5-------5---5---|----5---5-------|6-------6---6---|----6---6-------| |
G|----------------|----------------|----------------|----------------| |
D|----------------|----------------|----------------|----------------| |
A|----------------|----------------|----------------|----------------| |
D|----------------|----------------|----------------|----------------| |2x

Guitar 2                                                               |
E|----------------|----------------|----------------|----------------| |
B|----------------|----------------|----------------|----------------| |
G|----------------|----------------|----------------|----------------| |
D|2-2-2-2-0-3-0-2-|2-2-2-2-2-2-2-2-|3-3-3-3-3-3-3-2-|0-0-0-0-0-0-0-0-| |
A|2-2-2-2-0-3-0-2-|2-2-2-2-2-2-2-2-|3-3-3-3-3-3-3-2-|0-0-0-0-0-0-0-0-| |
D|2-2-2-2-0-3-0-2-|2-2-2-2-2-2-2-2-|3-3-3-3-3-3-3-2-|0-0-0-0-0-0-0-0-| |

Guitar 1                                                               |
E|----------------|----------------|----------------|----------------| |
B|5~~~~~~~~~~~~~~~|~~~~~~~~~~~~~~~~|~~~~~~~~~~~~~~~~|~~~~~~~~~~~~~~~~| |
G|----------------|----------------|----------------|----------------| |1x
D|----------------|----------------|----------------|----------------| |
A|----------------|----------------|----------------|----------------| |
D|----------------|----------------|----------------|----------------| |

Refrain

Both Guitars         |
E|-- --------------| |
B|-- --------------| |
G|-- --------------| |1x
D|2/14-------------| |
A|2/14-------------| |
D|2/14-------------|

Both Guitars                                                           |
E|----------------|----------------|----------------|----------------| |
B|----------------|----------------|----------------|----------------| |
G|----------------|----------------|----------------|----------------| |3x
D|2-2-2-2-0-3-0-2-|2-2-2-2-2-2-2-2-|3-3-3-3-3-3-3-2-|0-0-0-0-0-0-0-0-| |
A|2-2-2-2-0-3-0-2-|2-2-2-2-2-2-2-2-|3-3-3-3-3-3-3-2-|0-0-0-0-0-0-0-0-| |
D|2-2-2-2-0-3-0-2-|2-2-2-2-2-2-2-2-|3-3-3-3-3-3-3-2-|0-0-0-0-0-0-0-0-| |

Both Guitars                                                           |
E|----------------|----------------|----------------|----------------| |
B|----------------|----------------|----------------|----------------| |
G|----------------|----------------|----------------|----------------| |1x
D|3-3-3-3-3-3-3-2-|0-0-0-0-0-0-0-0-|2-2-2-2-0-3-0-2-|2-2-2-2-2-2-2-2-| |
A|3-3-3-3-3-3-3-2-|0-0-0-0-0-0-0-0-|2-2-2-2-0-3-0-2-|2-2-2-2-2-2-2-2-| |
D|3-3-3-3-3-3-3-2-|0-0-0-0-0-0-0-0-|2-2-2-2-0-3-0-2-|2-2-2-2-2-2-2-2-| |

Guitar 1                                                               |
E|--8-7-5-------8-|7-5-------8-7-5-|--8-7-5-------8-|7-5-------8-7-5-| |
B|5-------5---5---|----5---5-------|6-------6---6---|----6---6-------| |
G|----------------|----------------|----------------|----------------| |1x
D|----------------|----------------|----------------|----------------| |
A|----------------|----------------|----------------|----------------| |
D|----------------|----------------|----------------|----------------| |

Refrain

Both Guitars         |
E|-- --------------| |
B|-- --------------| |
G|-- --------------| |1x
D|2/14-------------| |
A|2/14-------------| |
D|2/14-------------| |

Both Guitars                                                           |
E|----------------|----------------|----------------|----------------| |
B|----------------|----------------|----------------|----------------| |
G|----------------|----------------|----------------|----------------| |3x
D|2-2-2-2-0-3-0-2-|2-2-2-2-2-2-2-2-|3-3-3-3-3-3-3-2-|0-0-0-0-0-0-0-0-| |
A|2-2-2-2-0-3-0-2-|2-2-2-2-2-2-2-2-|3-3-3-3-3-3-3-2-|0-0-0-0-0-0-0-0-| |
D|2-2-2-2-0-3-0-2-|2-2-2-2-2-2-2-2-|3-3-3-3-3-3-3-2-|0-0-0-0-0-0-0-0-| |

Both Guitars                                                           |
E|----------------|----------------|----------------|----------------| |
B|----------------|----------------|----------------|----------------| |
G|----------------|----------------|----------------|----------------| |1x
D|3-3-3-3-3-3-3-2-|0-0-0-0-0-0-0-0-|2-2-2-2-0-3-0-2-|2-2-2-2-2-2-2-2-| |
A|3-3-3-3-3-3-3-2-|0-0-0-0-0-0-0-0-|2-2-2-2-0-3-0-2-|2-2-2-2-2-2-2-2-| |
D|3-3-3-3-3-3-3-2-|0-0-0-0-0-0-0-0-|2-2-2-2-0-3-0-2-|2-2-2-2-2-2-2-2-| |

Refrain

Guitar 1                                                                |
E|----------------|----------------|----------------|8~~~~~~~~~~~~~~~|  |
B|5~~~~~~~~~~~~~~5|6~~~~~~~~~~~~~~6|7~~~~~~~~~~~~~~7|----------------|  |
G|----------------|----------------|----------------|----------------|  |
D|----------------|----------------|----------------|----------------|  |
A|----------------|----------------|----------------|----------------|  |
D|----------------|----------------|----------------|----------------|  |1x

Guitar 2                                                                |
E|----------------|----------------|----------------|-------------- --| |
B|----------------|----------------|----------------|-------------- --| |
G|----------------|----------------|----------------|-------------- --| |
D|3-3-3-3-3-3-3-2-|0-0-0-0-0-0-0-0-|2-2-2-2-0-3-0-2-|2-2-2-2-2-2-2/14-| |
A|3-3-3-3-3-3-3-2-|0-0-0-0-0-0-0-0-|2-2-2-2-0-3-0-2-|2-2-2-2-2-2-2/14-| |
D|3-3-3-3-3-3-3-2-|0-0-0-0-0-0-0-0-|2-2-2-2-0-3-0-2-|2-2-2-2-2-2-2/14-| |

Both Guitars                                                           |
E|----------------|----------------|----------------|----------------| |
B|----------------|----------------|----------------|----------------| |
G|----------------|----------------|----------------|----------------| |3x
D|2-2-2-2-0-3-0-2-|2-2-2-2-2-2-2-2-|3-3-3-3-3-3-3-2-|0-0-0-0-0-0-0-0-| |
A|2-2-2-2-0-3-0-2-|2-2-2-2-2-2-2-2-|3-3-3-3-3-3-3-2-|0-0-0-0-0-0-0-0-| |
D|2-2-2-2-0-3-0-2-|2-2-2-2-2-2-2-2-|3-3-3-3-3-3-3-2-|0-0-0-0-0-0-0-0-| |

Both Guitars                                                           |
E|----------------|----------------|----------------|----------------| |
B|----------------|----------------|----------------|----------------| |
G|----------------|----------------|----------------|----------------| |2x
D|3-3-3-3-3-3-3-2-|0-0-0-0-0-0-0-0-|2-2-2-2-0-3-0-2-|2-2-2-2-2-2-2-2-| |
A|3-3-3-3-3-3-3-2-|0-0-0-0-0-0-0-0-|2-2-2-2-0-3-0-2-|2-2-2-2-2-2-2-2-| |
D|3-3-3-3-3-3-3-2-|0-0-0-0-0-0-0-0-|2-2-2-2-0-3-0-2-|2-2-2-2-2-2-2-2-| |

Guitar 1                                                               |
E|--8-7-5-------8-|7-5-------8-7-5-|--8-7-5-------8-|7-5-------8-7-5-| |
B|5-------5---5---|----5---5-------|6-------6---6---|----6---6-------| |
G|----------------|----------------|----------------|----------------| |
D|----------------|----------------|----------------|----------------| |
A|----------------|----------------|----------------|----------------| |
D|----------------|----------------|----------------|----------------| |2x

Guitar 2                                                               |
E|----------------|----------------|----------------|----------------| |
B|----------------|----------------|----------------|----------------| |
G|----------------|----------------|----------------|----------------| |
D|2-2-2-2-0-3-0-2-|2-2-2-2-2-2-2-2-|3-3-3-3-3-3-3-2-|0-0-0-0-0-0-0-0-| |
A|2-2-2-2-0-3-0-2-|2-2-2-2-2-2-2-2-|3-3-3-3-3-3-3-2-|0-0-0-0-0-0-0-0-| |
D|2-2-2-2-0-3-0-2-|2-2-2-2-2-2-2-2-|3-3-3-3-3-3-3-2-|0-0-0-0-0-0-0-0-| |

Guitar 1                                                                                |
E|--8-7-5-------8-|7-5-------8-7-5-|--8-7-5-------8-|7-5-------8-7-5-|----------------| |
B|6-------6---6---|----6---6-------|5-------5---5---|----5---5-------|6~~~~~~~~~~~~~~~| |
G|----------------|----------------|----------------|----------------|----------------| |
D|----------------|----------------|----------------|----------------|----------------| |
A|----------------|----------------|----------------|----------------|----------------| |
D|----------------|----------------|----------------|----------------|----------------| |1x

Guitar 2                                                                                |
E|----------------|----------------|----------------|----------------|----------------| |
B|----------------|----------------|----------------|----------------|----------------| |
G|----------------|----------------|----------------|----------------|----------------| |
D|3-3-3-3-3-3-3-2-|0-0-0-0-0-0-0-0-|2-2-2-2-0-3-0-2-|2-2-2-2-2-2-2-2-|----------------| |
A|3-3-3-3-3-3-3-2-|0-0-0-0-0-0-0-0-|2-2-2-2-0-3-0-2-|2-2-2-2-2-2-2-2-|----------------| |
D|3-3-3-3-3-3-3-2-|0-0-0-0-0-0-0-0-|2-2-2-2-0-3-0-2-|2-2-2-2-2-2-2-2-|----------------| |
Página 1 / 1

Letras e título
Acordes e artista

resetar configurações
OK