Cifra Club

Aprenda

New York City

Emigrate

Tab de baixo: Principal
Quer fazer aulas de música com a gente? Responda essas perguntas
e nos ajude nesse projeto! →
Verse:
F||------------------------------------------------------------| x2
C||------------------------------------------------------------| 
G||--x-3-x-x-3-x-x-3-x-x-3-3/1-x-x-1-x-x-x-1-x-x-1-1-1/6-6-6---|
C||------------------------------------------------------------|

Bridge:
F||---------------------------| x2 |---------|
C||---------------------------|    |---------| 
G||--6~-------5~-------3~-----|    |--1~-----|
C||---------------------------|    |---------|

Chorus:
F||----------------------------------| x4
C||----------------------------------| 
G||--6-6-6-6-6-6-6-6-1-1-1-3-3-3-3-3-|
C||----------------------------------|

Ending chorus:
F||----------------------------------| end
C||----------------------------------| 
G||--6-6/-1----6-6/-1-----3~---------|
C||----------------------------------|
Composição de Richard Z. Kruspe
934 exibições

0 comentários

Ver todos os comentários

Conseguiu tocar?

0 Tocaram 0 Ainda não

Grave um vídeo tocando New York City e nos envie!

00:00 / 00:00
Outros vídeos desta música
Repetir Qualidade Automático
Outros vídeos desta música
00:00 / 00:00
Automático

Cifra Club Pro

Aproveite o Cifra Club com benefícios exclusivos e sem anúncios
Cifra Club Pro
Aproveite o Cifra Club com benefícios exclusivos e sem anúncios
OK