Cifra Club

Aprenda

Big Big World

Emilia

Cifra: Versão 4 (violão e guitarra)
Já pensou em usar uma coleção de roupas do Cifra Club? Responda as perguntas abaixo e nos ajude nessa missão! →
tom: C
                       I'm a big           big                 big             leave
                                big           big                 big
                                   girl          world               thing           me
                            *         in a          it's not a          if you          but I...
E|--------------------------|----------------------------------------------------------------|
B|5--5--5--5--5--5--5--5----|5--5--5--5----3--3--3--3----------1--1--1--1------5--5--3--3----|
G|-5--5--5--5--5--5--5--5---|-5--5--5--5----4--4--4--4----------2--2--2--2------5--5--4--4---|
D|--------------------------|----------------------------------------------------------------|
A|--------------------------|----------------------------------------------------------------|
E|--------------------------|----------------------------------------------------------------|

  do            too                 much
     do            too                               miss you                       I can
        feel          will                              much     *                     see the
           that I        miss you                                *
E|---------------------------------------------------------------|--------------------------|
B|5--5--5--5----3--3--3--3----------1--1--1--1------5--5--3--3---|5--5--5--5----5---5--5--5-|
G|-5--5--5--5----4--4--4--4----------2--2--2--2------5--5--4--4--|-5--5--5--5---5----5--5--5|
D|---------------------------------------------------------------|--------------------------|
A|---------------------------------------------------------------|--------------------------|
E|---------------------------------------------------------------|--------------------------|

  first leaf             It's all     yellow           It's so                 like the    inside
      falling                            and nice         very                    way
                                                                cold outside         I'm
                                                                                        feeling
E|-------------------------------------------------------------------------------------------------|
B|3--3--3--3----------1--1--1--1------5--5--3--3----1--1--1--1--3--3--3--3--1--1--1--1--5--5--4--4-|
G|-4--4--4--4----------2--2--2--2------5--5--4--4----2--2--2--2--4--4--4--4--2--2--2--2--5--5--3--3|
D|-------------------------------------------------------------------------------------------------|
A|-------------------------------------------------------------------------------------------------|
E|-------------------------------------------------------------------------------------------------|

E|-----------------------|
B|5--5--3--8--1--1--1--3-|
G|-5--5--4--0--2--2--2--4|
D|-----------------------|
A|-----------------------|
E|-----------------------|


( C )

        G                 F
Outside it's now raining
                      C      G      Am
And tears are falling from my eyes
           G               F
Why did it have to happen
               C       G
Why did it all have to end

      C
I'm a big big girl
     G
In a big big world
           F                    C     G
It's not a big big thing if you leave me
      C
But I do do feel that
  G                   F      C
I do do will miss you much
         G     Dm
Miss you much
  Am         G             C  G          F
I have your arms around me oooooh like fire
    Dm     C        G
But when I open my eyes
        C   
You're gone

      D
I'm a big big girl
     A
In a big big world
           G                    D     A
It's not a big big thing if you leave me
      D
But I do do feel that
  A                   G      D
I do do will miss you much
         A
Miss you much
Final:
I'm a big           big           big             leave         do...           miss
         big           big           big                            feel...          you much...
            girl          world         thing           me               I will...
               in a          it's not a    if you          but I
e|---------------------------------------------------------------------------------------------|
B|7--7--7--7----5--5--5--5----3--3--3--3------7--7--5--5----7--7--7--7--5--5--5--5--3--3--3--3-|
G|-7--7--7--7----6--6--6--6----4--4--4--4------7--7--6--6----7--7--7--7--6--6--6--6--4--4--4--4|
D|---------------------------------------------------------------------------------------------|
A|---------------------------------------------------------------------------------------------|
E|---------------------------------------------------------------------------------------------|
  miiiiss...
           you much...
E|--------------------------------------2|
B|7--7--5--5--7--7--7--7--5--5--3--3----3|
G|-7--7--6--6--7--7--7--7--6--6--4--4---2|
D|--------------------------------------0|
A|---------------------------------------|
E|---------------------------------------|

Composição de Emilia
Colaboração e revisão:
  • Gabriel Dallagrana
374 exibições
    • ½ Tom
    • A
    • Bb
    • B
    • C
    • Db
    • D
    • Eb
    • E
    • F
    • F#
    • G
    • Ab
  • Adicionar à lista

    0 comentários

    Ver todos os comentários

    Conseguiu tocar?

    0 Tocaram 0 Ainda não

    Grave um vídeo tocando Big Big World e nos envie!

    00:00 / 00:00
    Outros vídeos desta música
    Repetir Qualidade Automático
    Outros vídeos desta música
    00:00 / 00:00
    Automático

    Cifra Club Pro

    Aproveite o Cifra Club com benefícios exclusivos e sem anúncios
    Cifra Club Pro
    Aproveite o Cifra Club com benefícios exclusivos e sem anúncios
    OK