8 Mile

Eminem

Composição de: Eminem
tom: G

E|--------------------------------------|
B|--------------------------------------|
G|--------------------------------------|
D|--------------------------------------|
A|-----7-5------7-5---------------------|
E|--5------8-5------8-5-----------------|

E|--------------------------------------|
B|--------------------------------------|
G|--------------------------------------|
D|--------------------------------------|
A|--7-5------7-5-7-8---5-7---3---5-2---3|
E|------8-5-----------------------------|

E|--------------------------------------|
B|--------------------------------------|
G|--------------------------------------|
D|--------------------------------------|
A|-----7-5------7-5---------------------|
E|--5------8-5------8-5-----------------|

E|--------------------------------------|
B|--------------------------------------|
G|--------------------------------------|
D|---------------------5----------------|
A|--7-5------7-5-7-8-----7---3---5-2---3|
E|------8-5-----------------------------|
 
          Second Guitarist

E|--------------------------------------|
B|--10---10---10---10---10--------------|
G|-----9---------9---------9-7-5-7-10-9-|
D|--------------------------------------|
A|--------------------------------------|
E|--------------------------------------|

E|--------------------------------------|
B|--------------------------------------|
G|--10-7----5-10-9-5----7-4----52-------|
D|--------------------------------------|
A|--------------------------------------|
E|--------------------------------------|
Página 1 / 1

Letras e título
Acordes e artista

resetar configurações
OK