8 Mile

Eminem

Composição de: Eminem
tom: G
It's like 3:00 am in the morning and im really tired but ive got nothing better to do, so...

this part's actually on the piano, but it sounds cool on guitar.
It's really easy, easier than it looks.

h=hold

e|-----------------------------------------------------
B|-----------------------------------------------------
G|-----------------------------------------------------
D|-----------------------------------------------------
A|-7-5-3-0--7-5-3-0--7-5-3-0--7-5-7-8h-5-7h--3h-5-2h-0-
E|-----------------------------------------------------

And then there's a part where it goes:

e|------------------------------------------------------
B|------------------------------------------------------
G|------------------------------------------------------
D|------------------------------------------------------
A|-7-5-3-0--7-5-3-0--7-5-3-0--7-5-7-8h-10-7h--3h-5-2h-0-
E|------------------------------------------------------

and then the high part during the chorus:

e|-9---9--9---9--9----------------------------------------
B|---9------9------9------7-10-9--10-7--7-10-9------------
G|-------------------11-9----------------------9--11-8----
D|-----------------------------------------------------11-
A|--------------------------------------------------------
E|--------------------------------------------------------

any questions? *
Página 1 / 1

Letras e título
Acordes e artista

resetar configurações
OK