Cleaning Out My Closet Solo

Eminem

Composição de: Achraf "AJ Junior" Jannusi / Eric Clapton
tom: C
Title      : CLEANIN' OUT MY CLOSET
Tabbed by  : Fred Fajardo (*)

This is the song's guitar part. Tuning at standard (EADGBE)

All parts are played palm muted.

Riff 1 (played 2 times)
E------------------------------
B------------------------------
G----------2-------------------
D--------2---2-----------------
A--0-0-3-------3-2-------------
E------------------------------

Riff 2
E----------------------------------
B----------------------------------
G--------------------1-2-4-1-2-----
D--------2-3-2---------------------
A------3-------3-------------------
E--1-1-----------0-----------------
Página 1 / 1

Letras e título
Acordes e artista

resetar configurações
OK