Im Back

Eminem

Composição de: Dr. Dre / Marshall Mathers / Melvin Bradford
tom: D
Thats why they call me Slim Shady, I'm Back, I'm Back!

e---------------------------------------------------------------|
B---------------------------------------------------------------|
G---------------------------------------------------------------|
D------------4--------------------------------------------------|
A--------2------5--2--------------------------------------------|
E--2--2---------------2--3--2--0--------------------------------|

or

e---------------------------------------------------------------|
B---------------------------------------------------------------|
G---------------------------------------------------------------|
D-------------4b-------4--5--4--2-------------------------------|
A----------2-----5--2--4--5--4--2-------------------------------|
E--1-1--2--------------2--3--2--0-------------------------------|

thnx!
Página 1 / 1

Letras e título
Acordes e artista

resetar configurações
OK