Cifra Club

Aprenda

Wish You Were Here

Emmerson Nogueira

Cifra: Principal (violão e guitarra)
tom: C
Parte 1:
Violão-Base:
Introdução: G F C G(3x) G*
obs.:(G* = Segurar e, em seguida, executar os riffs abaixo.)

Parte 2:
2 Violões juntos (um nos riffs e outro na base que os acompanha.)

Obs.: Faça o Riff 1 (2x), depois passar ao Riff 2(2x), chegando ao Riff 3(1x).

Violão-Riff

Riff 1:(x2)
   G          Em           G
D |-------0--2-|---2-5-2-0-------
A |---0h2------|-----------------    (x2)
E |-3----------|-----------------

Riff 2:(x2)
   G          Em           A
D |-------0--2-|---2-0-----------
A |---0h2------|-------2-0-------    (x2)
E |-3----------|-----------------

Riff 3:(x1)
   A          G*  (G* = Segurar e passar à letra abaixo.)
D |------------|-----------------
A |-0h2-0h2----|-----------------    (x1)
E |---------3--|-----------------

Violão-Base
"Acompanhamento" dos 3 Riffs:
G Em G Em G Em A Em A G*


C
So,
                     D
So you think you can tell
               Am
Heaven from hell
                G
Blue skies from pain
                       D
Can you tell a green field
From a cold steel rail?
C                 Am
Smile from a veil?
                       G
Do you think you can tell?
                             C
Did they get you to trade?
                   D
Your heroes for ghosts
                Am
Hot ashes for trees
                     G
Hot air for a cool breeze
                    D
Cold comfort for change
                  C
And did you exchange?
                      Am
A walk on part in the war
                         G
For a lead role in the cage

Parte 3:
3 Violões juntos (um nos riffs, outro na base que os acompanha e outro no solo abaixo.)

Obs.: Faça o Riff 1 (2x), depois passar ao Riff 2(2x), chegando ao Riff 3(1x).


Violão-Riff

Riff 1:(x2)
   G          Em           G
D |-------0--2-|---2-5-2-0-------
A |---0h2------|-----------------    (x2)
E |-3----------|-----------------

Riff 2:(x2)
   G          Em           A
D |-------0--2-|---2-0-----------
A |---0h2------|-------2-0-------    (x2)
E |-3----------|-----------------

Riff 3:(x1)
   A          G*  (G* = Segurar e passar à letra abaixo.)
D |------------|-----------------
A |-0h2-0h2----|-----------------    (x1)
E |---------3--|-----------------

Violão-Solo:
E |-----------------------------|--3~5-3-------------------------------------------|
B |----3-/-5---3----------------|--3~5-3--3~5-3--3-3~5-3-3-0-----------------------|
G |-2~4-----4---4~2-------------|---------2~4-2--0-2~4-2-0-0-----------------------|
D |----------------5-0-----0-0--|--------------------------------------------------|
A |--------------------1~2------|--------------------------------------------------|
E |-----------------------------|--------------------------------------------------|

E |--------------------------------------------------------------------------------|
B |-----3--5-5*--3---1~2-3-5-2--|-----3---3---5-5*---5-----------------------------|
G |-2~4--4-----4---2----------2-|-2~4---4---4------4---2-4*-2----------------------|
D |-----------------------------|--------------------------------------------------|
A |-----------------------------|--------------------------------------------------|
E |-----------------------------|--------------------------------------------------|


Violão-Base
"Acompanhamento" dos 3 Riffs:
G Em G Em G Em A Em A G*
(G* = Segurar e passar à letra abaixo.)

Parte 3:

C
How I wish,
                    D
How I wish you were here
             Am
We´re just two lost souls swimming in a fish bowl
G
Year after year
D
Running over the same old ground
C
What have we found?
                Am
The same old fears
                 G
Wish you were here

 (Voltar à Parte 3)
Composição de David Glimour / Roger Waters
Colaboração e revisão:
  • Renato Nascimento
  • Elias Vieira
  • Ionan Bié
151.358 exibições
    • ½ Tom
    • A
    • Bb
    • B
    • C
    • Db
    • D
    • Eb
    • E
    • F
    • F#
    • G
    • Ab
  • Adicionar à lista

    0 comentários

    Ver todos os comentários

    Conseguiu tocar?

    11 Tocaram 1 Ainda não

    Grave um vídeo tocando Wish You Were Here e nos envie!

    00:00 / 00:00
    Outros vídeos desta música
    Repetir Qualidade Automático
    Outros vídeos desta música
    00:00 / 00:00
    Automático

    Cifra Club Pro

    Aproveite o Cifra Club com benefícios exclusivos e sem anúncios
    Cifra Club Pro
    Aproveite o Cifra Club com benefícios exclusivos e sem anúncios
    OK