Enviar cifraEntrar

Ando Só

Engenheiros do Hawaii

Tab de baixo: Principal
exibições 12.083
Introdução
-------------------------------------------------------------------------------------------------
-------------------------------------------------------------------------7-6-4-------------------
----------------2-2-2-0-2------------------2-2-2-0-2--0------------7-----------------------------
0-0-0-0-0-0-0-0------------0-0-0-0-0-0-0-0-------------------------------------------------------

Ando só pois só eu sei pra onde ir por onde andei
Ando só nem sei porque Não me pergunte o que eu não sei.
---------------------------------------------------------------2---2---------4---6-4-------------
------------------------------2-------2-------2-------2------2---2----2----4---4-----6-4-2-2---2-
----------2-0---------2---4-4---4-3-3---3-2-2---2-1-1---1--0---0----0---2--------------------2---
--0-0-0-0-----4-4-4-4---4------------------------------------------------------------------------

--------------------------------2----2---------4---6-4-----------9-------------------------------
--1-1---1-0-0---0-------------2----2----2----4---4-----6-4-2-------------------------------------
------2-------2---4-4-2-4---0----0----0---2------------------------------------------------------
-------------------------------------------------------------------------------------------------

Pegunte ao pó desca o porão...
---------------------------------------------------------------2---2---------4---6-4-------------
------------------------------2-------2-------2-------2------2---2----2----4---4-----6-4-2-2---2-
----------2-0---------2---4-4---4-3-3---3-2-2---2-1-1---1--0---0----0---2--------------------2---
--0-0-0-0-----4-4-4-4---4------------------------------------------------------------------------

--------------------------------2----2---------4---6-4-------------------------------------------
--1-1---1-0-0---0-------------2----2----2----4---4-----6-4---------------------------------------
------2-------2---4-4-2-4---0----0----0---2------------------------------------------------------
-------------------------------------------------------------------------------------------------

Parada...
-------------------------------------------------------------------------------------------------
-------------------------------------------------------------------------------------------------
----------------2-2-2-0-2------------------2-2-2-0-2---------------------------------------------
0-0-0-0-0-0-0-0------------0-0-0-0-0-0-0-0-------------------------------------------------------

Desate o nó que te prendeu...

---------------------------------------------------------------2---2---------4---6-4-------------
------------------------------2-------2-------2-------2------2---2----2----4---4-----6-4-2-2---2-
----------2-0---------2---4-4---4-3-3---3-2-2---2-1-1---1--0---0----0---2--------------------2---
--0-0-0-0-----4-4-4-4---4------------------------------------------------------------------------

--------------------------------2----2---------4---6-4------------9------------------------------
--1-1---1-0-0---0-------------2----2----2----4---4-----6-4-2-------------------------------------
------2-------2---4-4-2-4---0----0----0---2------------------------------------------------------
-------------------------------------------------------------------------------------------------

Refrão
Ando só...
-------------------------------------------------------------------------------------------------
--------------4-6-4-------2-4--------------------------------------------------------------------
--0-0-0----4-6------6-2-4-----------7-9-----7-9------7-9-----7--5--------------------------------
--------------------------------0-0-----0-0------0-0-----0-0-------------------------------------
Ando só...
-------------------------------------------------------------------------------------------------
--------------4-6-4-------2-4--------------------------------------------------------------------
--0-0-0----4-6------6-2-4-----------7-9-----7-9------7-9-----7--5--------------------------------
--------------------------------0-0-----0-0------0-0-----0-0-------------------------------------
Ando só pois só eu sei andar, sem saber até quando. Ando sóoooo.
-------------------------------------------------------------------------------------------------
---------------4-6-4------2-4--------------------------------------------------------------------
--0-0-0----4-6-------6-2-4------4-4--2-2--0-----0-0-0-0--0-2-2-2-2-2-----------------------------
---------------------------------------------------------------------0---------------------------

Agora entra o solo, é só repetir a segunda parte, e depois vem o refrão novamente.



Sem escutar a música é meio complicado, escutando fica mais fácil de acompanhar.
Evandro Gonçalves (egom82@zipmail.com.br)

_______________________________________________________
Contribuição: evandro gonçalves de campos junior(egom82@zipmail.com.br)
  • 1
  • 2
  • 3
  • 4
  • 5
  • 6
  • 7
  • 8
  • 9
  • 10
  • 11
  • 12
    Composição: Humberto Gessinger

    0 comentários

      mostrar mais comentários

      Conseguiu tocar?

      0tocaram0ainda não

      Grave um vídeo tocando Ando Só e mande pra gente!

      00:00 / 00:00
      outros vídeos desta música
      repetirqualidadeautomática
      • automática
      Outro vídeos desta música
        00:00 / 00:00
        automática
        • automática
        Acordes para:violão e guitarra
        dificuldadeexibiçõescontribuições
        3 versões de Tab de baixoexibiçõescontribuições
        1 versão de Guitar Proformatodownloadscontribuição
        fecharplay/pause subir/descer velocidade
        fechar
        OK
        Feedback