Cifra Club

Aprenda

Até o Fim

Engenheiros do Hawaii

Tab de baixo: Principal
intro:

G|---------------------------|
D|---------------------------|
A|----------------2------5---|
E|--3------0-----------------|

verso
    G        Em      Bm       D
G|-------------------------------------|
D|-------------------------------------|
A|-------------------2-2-2-2--5-5-5-5--|  2X
E|--3-3-3-3--0-0-0-0-------------------|

    G        Em      A        C
G|-------------------------------------|
D|-------------------------------------|
A|-------------------0-0-0-0--3-3-3-3--|  1X
E|--3-3-3-3--0-0-0-0-------------------|

    G        Em      Bm       D
G|-------------------------------------|
D|-------------------------------------|
A|-------------------2-2-2-2--5-5-5-5--|  1X
E|--3-3-3-3--0-0-0-0-------------------|

Minhas raizes...
Voando sem instrumentos...
toda a vida, o dia...
Cada célula, todo fio...

( esse conjunto inteiro é tocado 2X )
    C           D                  Em
G|--------15------15------17------17-|   |--------99999--|
D|-----------------------------------|   |---------------|
A|--13-13---13-13---15-15---15-15----|3X |--77777--------|  1X
E|-----------------------------------|   |---------------|

( depois este 1X )
    C           D            
G|--------------------------------------------|
D|--------15-------15-------17-------17-------|
A|--13-13----13-13----15-15----15-15----------| 1X
E|--------------------------------------------|

Refrão:

    G      Em     A      A
G|-----------------------------|
D|----------------7------7-----|
A|------------------0-0----0-0-|  2X
E|--3b4-3--0b1-0---------------|

Final

Não vim até aqui...

    G        Em      Bm       D
G|-------------------------------------|
D|-------------------------------------|
A|-------------------2-2-2-2--5-5-5-5--|  3X
E|--3-3-3-3--0-0-0-0-------------------|

( a música termina mais ou menos assim )
G|--------|
D|--------|
A|--------|
E|--3/10--|

às vezes, ele faz um "D" em "G|-7-7-7-7-|" no lugar de em "A|-5-5-5-5-|", e a mesma
coisa com "C" tocando "G|-5-5-5-5-|".
Composição de Humberto Gessinger
Colaboração e revisão:
  • Bruno Oliveira
  • Washington Vasconcelos
21.783 exibições

0 comentários

Ver todos os comentários
00:00 / 00:00
Outros vídeos desta música
Repetir Qualidade Automático
Outros vídeos desta música
00:00 / 00:00
Automático

Cifra Club Pro

Aproveite o Cifra Club com benefícios exclusivos e sem anúncios
Cifra Club Pro
Aproveite o Cifra Club com benefícios exclusivos e sem anúncios
OK