Cifra Club

Aprenda

Até o Fim

Engenheiros do Hawaii

Tab de baixo: Acustico
(intro)
G----------------------------------------------------------------|
D----------------------------------------------------------------|
A-----------------2--2---5--5--------------------2--2----5--5----|
E-3--3-3-2-0--0-0-----2-------5--3--3-3-2-0--0-0------2-------5--|

(parte 1)
G----------------------------------------------------------------|
D----------------------------------------------------------------|
A----------------2--2---5--5--------------------2--2----5--5-----|
E-3--3-3-2-0--0-0----2-------5--3--3-3-2-0--0-0------2-------5---|

(parte 2)
G--------------------------------------|
D--------------------------------------|
A------------------------3--3---3-3-3--|
E-3--3-3-2-0--0-0-5--5-5--3---0--------|

(parte 3)
G----------------------------------|
D-----------------------------7-5--|
A-----------------2--2---5--5------|
E-3--3-3-2-0--0-0-----2---5--------|

(parte 4)
G----------------------------------------------------------------------------------------|
D----------------------------------------------------------------------------------------|
A-3--3-3--3--5--5-5--5--3--3-3--3--5--5-5--5--3--3-3--3--5--5-5--5-----------------7-7-7-|
E--3----3--3--5----5--5--3----3--3--5----5--5--3----3--3--5----5--5--0--0-0--0--0-0------|

(parte 5)
G------------------------|
D------------------------|
A-3--3-3--3--5--5^~~~----|
E--3----3--3--5------3...|

(parte 6)
G--------------------------------------------------------------------------|
D--------------------------------------------------------------------------|
A-3--3-3-5--5--5-3--3-3-5--5--5-3--3-3-5--5--5------------3--3--5--5^^^^^^-|
E------------5--------------5--------------5----0---0---0------------------|
Composição de Humberto Gessinger
Colaboração e revisão:
  • Pedro Henrique
2.504 exibições

0 comentários

Ver todos os comentários
00:00 / 00:00
Outros vídeos desta música
Repetir Qualidade Automático
Outros vídeos desta música
00:00 / 00:00
Automático

Cifra Club Pro

Aproveite o Cifra Club com benefícios exclusivos e sem anúncios
Cifra Club Pro
Aproveite o Cifra Club com benefícios exclusivos e sem anúncios
OK