Notificações Amigos pendentes

      Engenheiros do Hawaii

      Canibal Vegetariano Devora Planta Carnívora

      3.452 exibições
      Introdução
      
      G|-------|-------|-------|-------|
      D|-------|-------|-------|-------|
      A|-------|-------|-------|-------|
      E|---3---|---3---|---3---|---3---|
      
      Eu tive um pesadelo, tive medo de não acordar, do alto de uma torre eu vi a terra...
      
      G|---------------------------------------------|
      D|-----------2---------------------2-----------| 2x
      A|-------------3---5-----------------0--0-3--5-|
      E|--3--2--0---------------3--2--0--------------|
      
      É um pesadelo, não consigo acordar
      
      G|--------------------------|
      D|---2----------------------|
      A|--------0-----3--------5--|
      E|--------------------------|
      
      Solo:
      
      G|------4-------------4----|------4------------------|
      D|--5-7---7--5-4-5--7---7--|--5-7---7--5-4-5--4-2-0--|
      A|-------------------------|-------------------------|
      E|-------------------------|-------------------------|
      
      Eu tive um pesadelo, tive medo de não acordar, eram várias variáveis...
      
      G|---------------------------------------------|
      D|-----------2---------------------2-----------| 2x
      A|-------------3---5-----------------0--0-3--5-|
      E|--3--2--0---------------3--2--0--------------|
      
      
      É um pesadelo, eu não consigo acordar
      
      G|--------------------------|
      D|---2----------------------|
      A|--------0-----3---5-------|
      E|----------------------3---|
      
      
      G|----------|
      D|----------| 3x
      A|--3-2-5---|
      E|----------|
      
      G|----------|
      D|----------|
      A|--3-2-----|
      E|------3---|
      
      Clichês inéditos
      
      G|--------------------------|
      D|--------------------------|
      A|--3-2-5-3-2-2-5-2-2-5-2-2-|
      E|--------------------------|
      
      Déja vu nunca visto
      
      G|--------------------------|
      D|--------------------------|
      A|--3-2-5-3-2-2-5-2-2-5-2-2-|
      E|--------------------------|
      
      Esquerda light
      
      G|-------------------------|
      D|-------------------------|
      A|--3-2-0--0-2-0-0-0-2-0-0-|
      E|-------------------------|
       
      Diet indigetão
      
      G|---------|
      D|---------|
      A|--3-2----|
      E|-------3-|
      
      Jagunço hi-tech
      
      G|--------------------------|
      D|--------------------------|
      A|--3-2-5-3-2-2-5-2-2-5-2-2-|
      E|--------------------------|
      
      Perua low profile
      
      G|--------------------------|
      D|--------------------------|
      A|--3-2-5-3-2-2-5-2-2-5-2-2-|
      E|--------------------------|
      
      Cabelo vermelho ferrari
      
      G|-------------------------|
      D|-------------------------|
      A|--3-2-0--0-2-0-0-0-2-0-0-|
      E|-------------------------|
      
      Jóia rara
      
      G|-------------------------|
      D|-------------------------|
      A|--3-2-0--0-2-0-0-0-2-0-0-|
      E|-------------------------|
      
      Para a multidão
      
      G|---------|
      D|---------|
      A|--3-2----|
      E|-------3-|
      
      
      G|-------|-------|
      D|-------|-------|
      A|-------|-------|
      E|---3---|---3---|
      
      Eu tive um pesadelo, tive medo de não acordar...
      
      G|-----------------------------------------------------|
      D|-----------------------------------------------------| 2x
      A|-----------------3---5---------------------0--0-3--5-|
      E|--3-3--2-2--0---------------3-3--2-2--0--------------|
      
      Eu tive um pesadelo, tive medo quando acordei
      
      G|--------------------------|
      D|---2----------------------|
      A|--------0-----3---5-------|
      E|----------------------3---|
      
      Tudo faz sentido, agora que tudo acabou...
      
      G|-----------------------------------------------------|
      D|-----------------------------------------------------| 
      A|-----------------3---5---------------------0--0-3--5-|
      E|--3-3--2-2--0---------------3-3--2-2--0--------------|
      
      Turistas vorazes levavam pra casa
      
      G|---------------------------|
      D|---------------------------|
      A|-----------------3---5-----|
      E|--3-3--2-2--0--------------|
      
      Desertos e oásis, num vídeo cassete
      
      G|-----------------------------|
      D|----5------4---2-------------|
      A|---------------------0-3--5--|
      E|--3---3--2---0---------------|
      
      Anjos em queda livre, o céu abaixo do nível do mar
      
      G|--------------------------|
      D|---2----------------------|
      A|--------0-----3---5-------|
      E|----------------------3---|
      
      Solo:
      
      G|------4-------------4----|------4------------------|
      D|--5-7---7--5-4-5--7---7--|--5-7---7--5-4-5--4-2-0--|
      A|-------------------------|-------------------------|
      E|-------------------------|-------------------------|
      
      Foi só um pesadelo, um peso pesado caído na lona...
      
      G|----------------------|
      D|----------------------| 4x
      A|-------5--5-3--3-5-5--|
      E|--3--3----------------|
      
      Foi só um pesadelo, paz na terra em transe profundo
      
      G|------------------------------------|
      D|--5--5-4--4-3--3-2-2----------------|
      A|--------------------------0---3--5--|
      E|------------------------------------|
      
      
      (O suprasumo da contradição)
      G|----------|
      D|----------| 3x
      A|--3-2-5---|
      E|----------|
      
      G|----------|
      D|----------|
      A|--3-2-----|
      E|------3---|
      
      Overdose homeopática
      
      G|--------------------------|
      D|--------------------------|
      A|--3-2-5-3-2-2-5-2-2-5-2-2-|
      E|--------------------------|
      
      Ode ao que se fode
      
      G|--------------------------|
      D|--------------------------|
      A|--3-2-5-3-2-2-5-2-2-5-2-2-|
      E|--------------------------|
           
      Humildade
      
      G|--------------------------|
      D|--------------------------|
      A|--3-2-0-2-0-2-0-0-0-2-0-0-|
      E|--------------------------|
             
      (com "H" maiúsculo e dourado)
      
      G|----------------------------|
      D|----------------------------|
      A|--3-2------2--------2-------|
      E|------3--3---3-3--3---3-3---|
               
      Enfant terrible veterano
      
      G|--------------------------|
      D|--------------------------|
      A|--3-2-5-3-2-2-5-2-2-5-2-2-|
      E|--------------------------|
           
      Calendário eterno
      
      G|--------------------------|
      D|--------------------------|
      A|--3-2-5-3-2-2-5-2-2-5-2-2-|
      E|--------------------------|
               
      Fuso anti-horário
      
      G|--------------------------|
      D|--------------------------|
      A|--3-2-0-2-0-2-0-0-0-2-0-0-|
      E|--------------------------|
      
      luz difusa
      
      G|--------------------------|
      D|--------------------------|
      A|--3-2-0-2-0-2-0-0-0-2-0-0-|
      E|--------------------------|
      
      Confusa explicação
      
      G|----------------------------|
      D|----------------------------|
      A|--3-2------2--------2-------|
      E|------3--3---3-3--3---3-3---|
      
      Tara relax
      
      G|--------------------------|
      D|--------------------------|
      A|--3-2-5-3-2-2-5-2-2-5-2-2-|
      E|--------------------------|
      
      Safe sex
        
      G|--------------------------|
      D|--------------------------|
      A|--3-2-5-3-2-2-5-2-2-5-2-2-|
      E|--------------------------|
         
      Disneylândia dândi
       
      G|--------------------------|
      D|--------------------------|
      A|--3-2-0-2-0-2-0-0-0-2-0-0-|
      E|--------------------------|
         
      (a grande guerra)
            
      G|----------------------------|
      D|----------------------------|
      A|--3-2------2--------2-------|
      E|------3--3---3-3--3---3-3---|
      
      Pantanal new age
      
      G|--------------------------|
      D|--------------------------|
      A|--3-2-5-3-2-2-5-2-2-5-2-2-|
      E|--------------------------|
       
      Bacanal cristão
              
      G|--------------------------|
      D|--------------------------|
      A|--3-2-5-3-2-2-5-2-2-5-2-2-|
      E|--------------------------|
      
      Fanatismo indeciso
         
      G|--------------------------|
      D|--------------------------|
      A|--3-2-0-2-0-2-0-0-0-2-0-0-|
      E|--------------------------|
      
      Fanática indecisão
      
      G|--------------------------|
      D|--------------------------|
      A|--3-2-0-2-0-2-0-0-0-2-0-0-|
      E|--------------------------|
      
      Em resumo:
              
      G|--------------------------|
      D|--------------------------|
      A|--3-2-0-2-0-2-0-0-0-2-0-0-|
      E|--------------------------|
        
      ET COETERA e tal...
      
      G|---|
      D|---|
      A|---|
      E|-3-|
        Composição: Humberto Gessinger / Augusto LicksColaboração e revisão:
        • kuka_g3

        Comentários 0

        140 .
        140 cancelar

        conseguiu tocar?

        covers

        Grave um vídeo tocando Canibal Vegetariano Devora Planta Carnívora e mande pra gente!

        Ex.: http://www.youtube.com/watch?v=0IvSvIwGdwk
        ver covers de outras músicas »
        0:00 / 0:00

        Capítulos

          1 versão de violão dificuldade exibições contribuição e correção
          1 versão de guitarra dificuldade exibições contribuição e correção
          1 versão de cavaco dificuldade exibições contribuição e correção
          1 versão de teclado dificuldade exibições contribuição e correção
          1 versão de baixo exibições contribuição e correção
          play/pausefechar subir/descer velocidade
          6ª corda E5ª corda A4ª corda D3ª corda G2ª corda B1ª corda E
            acordes
            publicidade
            fechar
            ok