Cifra Club

Eu Que Não Amo Você

Engenheiros do Hawaii

Tab de baixo: Principal
A cifras estão na ordem em que a musica é tocada.

Começo da Musica
G---------------------------------------------------------
D---------------------------------------------------------   2x
A------------3--3-3---------5-6--------------------------- 
E--0--0-0-----------3--3-3--------------------------------

"Senti saudades..."
G--------------------------------------------------------------------------------
D--------------------------------------------------------------------------------
A---3--3-3-----------3-12/--------------0--0-0--0--0--3--3----------3---5-6------ 
E------------3--3-3--------3--3-2-0-------------------------3--3-3---------------

Refrão
G---------------------------------------------------------
D---------------------------------------------------------   2x
A------------3--3-3---------5-6--------------------------- 
E--0--0-0-----------3--3-3--------------------------------

"O certo é que eu dancei..."
G--------------------------------------------------------------------------------
D--------------------------------------------------------------------------------
A---3--3-3-----------3-12/--------------0--0-0--0--0--3--3----------3---5-6------ 
E------------3--3-3--------3--3-2-0-------------------------3--3-3---------------

Refrão 
G---------------------------------------------------------
D---------------------------------------------------------   2x
A------------3--3-3---------5-6--------------------------- 
E--0--0-0-----------3--3-3--------------------------------

Na hora do solo
G--------------------------------------------------------------------------------
D--------------------------------------------------------------------------------
A--3-12/---------3--3-3----------3--3-3-------------------3--3-3---------5-6----- 
E--------3--3-3----------3--3-3---------3--3-3----0--0-0---------3--3-3----------

Refrão
G---------------------------------------------------------
D---------------------------------------------------------   4x
A------------3--3-3---------5-6--------------------------- 
E--0--0-0-----------3--3-3--------------------------------



_______________________________________________________
Contribuição: Caio Mac Cord(caiomaccord@hotmail.com)
exibições 32.166
Composição: Humberto Gessinger

0 comentários

mostrar mais comentários

Conseguiu tocar?

7 tocaram 0 ainda não

Grave um vídeo tocando Eu Que Não Amo Você e mande pra gente!

00:00 / 00:00
outros vídeos desta música
repetir qualidade Automático
Outros vídeos desta música
00:00 / 00:00
Automático
OK