Cifra Club

Infinita Highway

Engenheiros do Hawaii

Tab de baixo: Principal
exibições 56.921
[Introdução]

Parte 1 de 3
G|-------14-16-19-18-16-18-16-18--14------------|
D|----14----------------------------------------|
A|-12-------------------------------------------|
E|----------------------------------------------|

Parte 2 de 3
G|----------------------------------------------|
D|---2-----2--------6-----6--------7-----7------|
A|-0---0-0---0-2--4---4-4---4-0--5---5-5---5-0--|
E|----------------------------------------------|

G|----------------------------------------------|
D|---9-----9------------------------------------|
A|-7---7-7---7----------------------------------|
E|----------------------------------------------|

Parte 3 de 3
G|---------2--------------6--------------7------|
D|---2--------------6--------------7------------|
A|-0---0-0---0-2--4---4-4---4-0--5---5-5---5-0--|
E|----------------------------------------------|

G|---------9------------------------------------|
D|---9------------------------------------------|
A|-7---7-7---7----------------------------------|
E|----------------------------------------------|


[Primeira parte]

Você me faz correr demais...

Parte 1 de 3 (4x)
G|----------------------------------------------|
D|-----------------------2---------2------------|
A|-0-----2-4-4-5-4-2-------4-2-------4-2--------|
E|---2-0-------------4-0-------4-0-------4------|

Parte 2 de 3 (2x)
G|----------------------------------------------|
D|----------------------------------------------|
A|-5-5-7-5---7-7-9-7----------------------4-----|
E|---------7---------9--2-2-0-2-5-2-2-0-2-------|

Parte 3 de 3
G|----------------------------------------------|
D|----------------------------------------------|
A|-5-5-7-5---7-7-9-7-----4----5--7\-------------|
E|---------7---------9-5---2--------------------|


[Refrão] 

Da infinita highway...

Parte 1 de 1
G|---2-----2--------6---6-------7---7-------9---|
D|----------------------------------------------|
A|-0-----0---0-2--4---4---0-4-5---5---0-5-7-----|
E|----------------------------------------------|

G|----9-----------------------------------------|
D|----------------------------------------------|
A|-7----7\--------------------------------------|
E|----------------------------------------------|

[Segunda parte]

Quando eu vivia e morria na cidade...

Parte 1 de 3 (4x)
G|----------------------------------------------|
D|-----------------------2---------2------------|
A|-0-----2-4-4-5-4-2-------4-2-------4-2--------|
E|---2-0-------------4-0-------4-0-------4------|

Parte 2 de 3 (2x)
G|----------------------------------------------|
D|----------------------------------------------|
A|-5-5-7-5---7-7-9-7----------------------4-----|
E|---------7---------9--2-2-0-2-5-2-2-0-2-------|

Parte 3 de 3
G|----------------------------------------------|
D|----------------------------------------------|
A|-5-5-7-5---7-7-9-7-----4----5--7\-------------|
E|---------7---------9-5---2--------------------|

[Refrão 2] 

Da infinita highway...

Parte 1
G|---2-----2--------6---6-------7---7-------9---|
D|----------------------------------------------|
A|-0---0-0---0-2--4---4---0-4-5---5---0-5-7-----|
E|----------------------------------------------|

G|----9-----------------------------------------|
D|----------------------------------------------|
A|-7----7\--------------------------------------|
E|----------------------------------------------|

[Terceira parte]

Escute garota, o vento canta uma canção...

Parte 1 de 4 (3x)
G|----------------------------------------------|
D|-----------------------2---------2------------|
A|-0-----2-4-4-5-4-2-------4-2-------4-2--------|
E|---2-0-------------4-0-------4-0-------4------|

Parte 2 de 4
G|----------------------------------------------|
D|-----------------------2---2---2---2--2-------|
A|-0-----2-4-4-5-4-2----------------------------|
E|---2-0-------------4-0---0---0---0------------|

Parte 3 de 4 (2x)
G|----------------------------------------------|
D|----------------------------------------------|
A|-5-5-7-5---7-7-9-7----------------------4-----|
E|---------7---------9--2-2-0-2-5-2-2-0-2-------|

Parte 4 de 4
G|----------------------------------------------|
D|----------------------------------------------|
A|-5-5-7-5---7-7-9-7-----4----5--7\-------------|
E|---------7---------9-5---2--------------------|


[Refrão 3] 

Silenciosa highway...

Parte 1 de 2
G|---2-2h4-2-------6-6h7-6-------7-7h9-7------9-|
D|----------------------------------------------|
A|-0---------0-2-4---------0-4-5--------0-5-7---|
E|----------------------------------------------|

G|-9h11-9---------------------------------------|
D|---------7------------------------------------|
A|----------------------------------------------|
E|----------------------------------------------|

Parte 2 de 2
G|---2-2h4-2-------6-6h7-6-------7-7h9-7--------|
D|----------------------------------------------|
A|-0---------0-2-4---------0-4-5--------0-5-7---|
E|----------------------------------------------|

G|-9/11-11-11--9--------------------------------|
D|----------------------------------------------|
A|----------------------------------------------|
E|----------------------------------------------|


[Quarta parte]

Eu vejo um horizonte trêmulo...

Parte 1 de 2 (4x)
G|---2---2--------6---6-------7---7-------9----9|
D|----------------------------------------------|
A|-0---0---0-2--4---4---0-4-5---5---0-5-7---7---|
E|----------------------------------------------|

G|----------------------------------------------|
D|----------------------------------------------|
A|-7\-------------------------------------------|
E|----------------------------------------------|

Parte 2 de 2
G|---2---2--------6---6-------7---7-------9-9-9\|
D|----------------------------------------------|
A|-0---0---0-2--4---4---0-4-5---5---0-5-7-------|
E|----------------------------------------------|

[Solo de Guitarra]

Parte 1 de 3 (2x)
G|----------------------------------------------|
D|----------------------------------------------|
A|-5-------5-7----------------------------------|
E|---7-5-7-----9-7-5--2-2-2-2--2-2-2-2----------|

G|----------------------------------------------|
D|----------------------------------------------|
A|---------------0-4----------------------------|
E|-2-2-2-2--2-2---------------------------------|

Parte 2 de 3
G|----------------------------------------------|
D|----------------------------------------------|
A|-5-------5-7---------4---5--7\----------------|
E|---7-5-7-----9-7-0-5---2----------------------|

Parte 3 de 3
G|---2-----2--------6---6-------7---7-------9---|
D|----------------------------------------------|
A|-0---0-0---0-2--4---4---0-4-5---5---0-5-7-----|
E|----------------------------------------------|

G|----9-----------------------------------------|
D|----------------------------------------------|
A|-7----7\--------------------------------------|
E|----------------------------------------------|


[Quinta parte]

Minha vida é tão confusa quanto a América…

Parte 1 de 5 (4x)
G|----------------------------------------------|
D|-----------------------2---------2------------|
A|-0-----2-4-4-5-4-2-------4-2-------4-2--------|
E|---2-0-------------4-0-------4-0-------4------|

Parte 2 de 5
G|----------------------------------------------|
D|-----------------------2---2---2---2--2-------|
A|-0-----2-4-4-5-4-2----------------------------|
E|---2-0-------------4-0---0---0---0------------|

Parte 3 de 5
G|----------------------------------------------|
D|----------------------------------------------|
A|-5-5-5h7-5--7-7-9-7-----------------4---------|
E|----------7---------9--2-2--2-2-2-5---2-2--2--|

G|----------------------------------------------|
D|----------------------------------------------|
A|-------4-5-5--7-5-7-5---7-7--9-7-9------------|
E|-2-2-5----------------7-----------------------|

Parte 4 de 5
G|-------------------14-16-18-16-14----14-------|
D|-------------14-16----------------16----16\---|
A|-------14-16----------------------------------|
E|-14-17----------------------------------------|

Parte 5 de 5
G|----------------------------------------------|
D|-------------------------11-------12-------14-|
A|-5-5-7-5---7-9-10-11--12----12-14----14-16----|
E|---------7------------------------------------|

G|----------------------------------------------|
D|-------16--------18-------18-------18---------|
A|-16-17----17--19----19-19----19-19----19-19---|
E|----------------------------------------------|

G|----------------------------------------------|
D|-18\------------------------------------------|
A|----------------------------------------------|
E|----------------------------------------------|


[Refrão 4 - Final]

Numa das curvas da highway...

Parte 1 de 3 (2x)
G|-----------14-14/16-14------------------------|
D|-11--12-11-------------11--12-11-14--14-14-14-|
A|-12--------------------12---------------------|
E|----------------------------------------------|

Parte 2 de 3
G|-----------14-16-16/18-16-14------------------|
D|-11--12-11-------------------11--12-11-14-----|
A|-12--------------------------12---------------|
E|----------------------------------------------|

G|----------------------------------------------|
D|-14-14-14-------------------------------------|
A|----------------------------------------------|
E|----------------------------------------------|

Parte 3 de 3
G|-----------14-14/16-14------------------------|
D|-11--12-11--------------11--------------------|
A|-12---------------------12-11-12/16-14\-------|
E|----------------------------------------------|

G|-9--------------------------------------------|
D|-7--------------------------------------------|
A|----------------------------------------------|
E|----------------------------------------------|

Composição: Humberto GessingerColaboração e revisão:
  • Reginaldo Costa
  • Lucas Frassetto

0 comentários

    mostrar mais comentários

    Conseguiu tocar?

    5tocaram0ainda não

    Grave um vídeo tocando Infinita Highway e mande pra gente!

    00:00 / 00:00
    outros vídeos desta música
    repetirqualidadeAutomático
    Outro vídeos desta música
      00:00 / 00:00
      Capítulos
      • Tocando a música
      • Apresentação / Equipamentos
      • TAB - Introdução - Parte 1 de 3
      • TAB - Introdução - Parte 2 de 3
      • TAB - Introdução - Parte 3 de 3
      • TAB - Primeira Parte - Parte 1 de 3
      • TAB - Primeira Parte - Parte 2 de 3
      • TAB - Primeira Parte - Parte 3 de 3
      • TAB - Refrão
      • Dicas Segunda Parte - Refrão 2
      • TAB - Terceira Parte - Parte 1 de 4
      • TAB - Terceira Parte - Parte 2 de 4
      • TAB - Terceira Parte - Parte 3 de 4
      • TAB - Terceira Parte - Parte 4 de 4
      • TAB - Refrão 3 - Parte 1 de 2
      • TAB - Refrão 3 - Parte 2 de 2
      • Dicas Quarta Parte - Solo
      • TAB - Quarta Parte - Parte 1 de 2
      • TAB - Quarta Parte - Parte 2 de 2
      • TAB - Solo de guitarra - Parte 1 de 3
      • TAB - Solo de guitarra - Parte 2 de 3
      • TAB - Solo de guitarra - Parte 3 de 3
      • Dicas Quinta Parte - Final
      • TAB - Quinta Parte - Parte 1 de 5
      • TAB - Quinta Parte - Parte 2 de 5
      • TAB - Quinta Parte - Parte 3 de 5
      • TAB - Quinta Parte - Parte 4 de 5
      • TAB - Quinta Parte - Parte 5 de 5
      • TAB - Refrão 4 - Parte 1 de 3
      • TAB - Refrão 4 - Parte 2 de 3
      • TAB - Refrão 4 - Parte 3 de 3
      • Encerramento
      OK