Cifra Club

Aprenda

Negro Amor

Engenheiros do Hawaii

Tab de baixo: Principal
Verso:
ex.: 'Vá, se mande, junte tudo que você puder levar 
Ande, tudo que parece seu é bom que agarre já 
Seu filho feio e louco ficou só 
chorando feito fogo à luz do sol' 

G|--------------------|
D|--------------------|
A|--5-5-------3-3--3-3|
E|-------1-1----------|

Pré-Refrão:
ex. : 'Os alquimistas já estão no corredor...' 

G|---------------------|
D|---------------------|
A|---------------------|
E|-0-0-0-0---3-3-3-3---|

Refrão: ('E não tem mais nada negro amor') = Verso

Solo:

G|----------------------------|
D|----------------------------|
A|------------------5-5-------|
E|-0-0---3-3---0-0--------1-1-|

Obs: Antes do solo, o refrão é interrompido na metade, na casa 1.

Pré-Refrão II (será usado somente na parte: 'Risque outro fósforo, outra....):

G|-----------------------|
D|-----------------------|
A|-----------------------|
E|-0-0---1-1---3-3---4-4-|

Sequencia:
Verso 4x
Pré-Refrão 1x
Refrão 1x
Verso 4x
Pré-Refrão 1x
Refrão 2x
Verso 4x
Pré-Refrão 1x
Refrão 1 1/2 x
Solo 1x
Refrão 4x
Pré Refrão II 1x
Refrão 4x
Composição de Bob Dylan / Caetano Veloso / Péricles Cavalcante
Colaboração e revisão:
  • Vinicius Filier
3.427 exibições

0 comentários

Ver todos os comentários
00:00 / 00:00
Outros vídeos desta música
Repetir Qualidade Automático
Outros vídeos desta música
00:00 / 00:00
Automático

Cifra Club Pro

Aproveite o Cifra Club com benefícios exclusivos e sem anúncios
Cifra Club Pro
Aproveite o Cifra Club com benefícios exclusivos e sem anúncios
OK