Enviar cifraEntrar

O Papa é Pop

Engenheiros do Hawaii

Cifra: Principal
exibições 632.626
Tom: C
Intro:
"O Pop não poupa ninguém..."

E|--8^-5--------|-----------|--------------------|----5----|
B|-------8-6----|--6h8-8-8--|------6-8-8^6-------|------8--|
G|-----------7--|-----------|--5h7------------7--|--7------|
D|--------------|-----------|--------------------|---------|
A|--------------|-----------|--------------------|---------|
E|--------------|-----------|--------------------|---------|


E|--8^-5--------|-----------|--------------------|---------|
B|-------8-6----|--6h8-8-8--|------6-8-8^-8-6----|---------|
G|-----------7--|-----------|--5h7------------7--|---(7)---|
D|--------------|-----------|--------------------|---------|
A|--------------|-----------|--------------------|---------|
E|--------------|-----------|--------------------|---------|


F/A              C/G                  Bb/F       C/G  Bb/F
Todo mundo tá revendo o que nunca foi visto
F/A                C/G             Bb/F          C/G  Bb/F
Todo mundo tá comprando os mais vendidos
F/A                  C/G
Qualquer nota, qualquer notícia
Bb/F               C/G
Páginas em branco, fotos coloridas
F/A                  C/G
Qualquer nova, qualquer notícia
Bb/F              C/G           Bb
Qualquer coisa que se mova é um alvo
              C E
Ninguém tá salvo
F/A              C/G                   Bb/F    C/G  Bb/F
Todo mundo tá relendo o que nunca foi lido
F/A        C/G               Bb/F    C/G  Bb/F
Tá na Caras, tá na capa da revista
F/A                 C/G
Qualquer nota, uma nota preta
Bb/F                 C/G
Páginas em branco, fotos coloridas
F/A             C/G
Qualquer rota, rotatividade
  Bb/F            C/G           Bb
Qualquer coisa que se mova é um alvo
              C
E ninguém tá salvo
       Bb          C
Um disparo, um estouro

Refrão 2x:
   Dm            G
O papa é pop, o papa é pop
   Bb/F      C/G      Dm
O pop não poupa ninguém
                         G
O papa levou um tiro a queima roupa
  Bb/F       C/G      Dm
O pop não poupa ninguém
(repetição do refrão junto com o solo)

E|--8^-5--------|-----------|--------------------|-------|
B|-------8-6----|--6h8-8-8--|--------6-8^v-------|--(8)--|
G|-----------7--|-----------|----5h7-------------|-------|
D|--------------|-----------|--7-----------------|-------|
A|--------------|-----------|--------------------|-------|
E|--------------|-----------|--------------------|-------|


E|--8^-5--------|-----------|--------------------|-------|
B|-------8-6----|--6h8-8-8--|------6-8-8^-8-6----|-------|
G|-----------7--|-----------|--5h7------------7--|--(7)--|
D|--------------|-----------|--------------------|-------|
A|--------------|-----------|--------------------|-------|
E|--------------|-----------|--------------------|-------|


F/A             C/G
Uma palavra na  tua camiseta
Bb/F
O planeta na tua cama
F/A            C/G
Uma palavra escrita a lápis
Bb/F
Eternidades da semana
(junto com a estrofe acima)

E|-------|--------|---20~--|--(20)--|
B|--13~--|--(13)--|--------|--------|
G|-------|--------|--------|--------|
D|-------|--------|--------|--------|
A|-------|--------|--------|--------|
E|-------|--------|--------|--------|


F/A            C/G
Qualquer coisa quase nova
Bb/F            C/G             Bb
Qualquer coisa que se mova é um alvo
              C
E ninguém tá salvo
       Bb          C
Um disparo, um estouro

Refrão:
   Dm            G
O papa é pop, o papa é pop
   Bb/F      C/G       Dm
O pop não poupa ninguém
                         G
O papa levou um tiro a queima roupa
  Bb/F       C/G          Dm
O pop não poupa ninguém
(repetição do refrão junto com o solo)

E|--8^-5--------|-----------|--------------------|
B|-------8-6----|--6h8-8-8--|--------6-8^v-6-8^--|
G|-----------7--|-----------|----5h7-------------|
D|--------------|-----------|--7-----------------|
A|--------------|-----------|--------------------|
E|--------------|-----------|--------------------|


E|--8^-5--------|-----------|--------------------|
B|-------8-6----|--6h8-8-8--|------6-8-8^-8-6----|
G|-----------7--|-----------|--5h7------------7--|
D|--------------|-----------|--------------------|
A|--------------|-----------|--------------------|
E|--------------|-----------|--------------------|


Ponte:
Bb
Toda catedral é populista
É pop, é macumba prá turista
E afinal o que é rock n' roll?
Os óculos do John, ou o olhar do Paul
(junto com a ponte)

E|------|--------|--------|--------|
B|--15--|--(15)--|--(15)--|--(15)--|
G|------|--------|--------|--------|
D|------|--------|--------|--------|
A|------|--------|--------|--------|
E|------|--------|--------|--------|


Solo:

E|---------------------|-------|------------------------------------------------|
B|--13^-10-------------|--12~--|------------------------------------------------|
G|---------12~-12^-10--|-------|--12----------12-------14-12-------12-----------|
D|---------------------|-------|-----15-14-12----15-14-------15-14----15-14-12--|
A|---------------------|-------|------------------------------------------------|
E|---------------------|-------|------------------------------------------------|


E|------------------------|---10~-12^-10~---------------|--10--15^-13----10-----|
B|--------------------10--|------------------------10---|-------------------13--|
G|-----------------10-----|---------------------10------|-----------------------|
D|--15-14-12~---12--------|------------------12---------|-----------------------|
A|------------------------|-----------------------------|-----------------------|
E|------------------------|-----------------------------|-----------------------|


E|--10-10----------------13-12-10----10-----------|-------------|
B|--------13-11-10----------------13----13-11-10--|-------------|
G|-----------------12-10--------------------------|--12-10------|
D|------------------------------------------------|--------12~--|
A|------------------------------------------------|-------------|
E|------------------------------------------------|-------------|


Refrão:
(baixo sustain)
   Dm            G
O papa é pop, o papa é pop
   Bb/F      C/G       Dm
O pop não poupa ninguém
                         G
O papa levou um tiro a queima roupa
  Bb/F       C/G          Dm
O pop não poupa ninguém

Refrão:
   Dm            G
O papa é pop, o papa é pop
   Bb/F      C/G       Dm
O pop não poupa ninguém
                         G
O papa levou um tiro a queima roupa
  Bb
O pop não poupa
O pop não poupa
              Dm
O pop não poupa...

E|--/13\12\10\--|
B|--/15\13\11\--|
G|--------------|
D|--------------|
A|--------------|
E|--------------|


     Dm
Ninguém...
E|-------|
B|-------|
G|-------|
D|--5-7--|
A|--5-5--|
E|-------|
  • 1
  • 2
  • 3
  • 4
  • 5
  • 6
  • 7
  • 8
  • 9
  • 10
  • 11
  • 12
    Acordes para:
      Composição: Humberto GessingerColaboração e revisão:

      0 comentários

        mostrar mais comentários

        Conseguiu tocar?

        43tocaram1ainda não

        Grave um vídeo tocando O Papa é Pop e mande pra gente!

        00:00 / 00:00
        outros vídeos desta música
        repetirqualidadeautomática
        • automática
        Outro vídeos desta música
          Capítulos
          • Início
          • Acordes da introdução
          • Tocando introdução
          • Tocando ritmo devagar
          • Ensinando ritmo
          • Acordes da primeira parte
          • Tocando primeira parte
          • Tocando ritmo da primeira parte devagar
          • Ensinando ritmo da primeira parte
          • Acordes da segunda parte
          • Tocando a segunda parte
          • Ritmo da segunda parte
          • Acordes do refrão
          • Tocando refrão
          • Ritmo do refrão
          • Acordes e ritmo da base do solo
          • Tocando a base do solo
          • Acorde da última parte
          • Tocando última parte
          • Ritmo da última parte
          • Encerramento
          00:00 / 00:00
          automática
          • automática
          fecharplay/pause subir/descer velocidade
            acordes
            fechar
            OK
            Feedback