Cifra Club

Pose

Engenheiros do Hawaii

Cifra: Principal
exibições 686.194
Tom: E
Intro:

    F#          E         B
E|------6---6---4-----4---2-----2---2------2-|
B|--------7-------5---------4---------4------|
G|-5/6--------------4---------4---------4----|
D|-------------------------------------------|
A|-------------------------------------------|
E|-------------------------------------------|

      F#         E         B          A   E
E|---5/6------6--4-----4--------------0------|
B|-------7---------5------7-----7-----2---0--|
G|---------6---------4------8---------2---1--|
D|---------------------------9--------2---2--|
A|------------------------------------0---2--|
E|----------------------------------------0--|

 F#        E          B
Vamos passear depois do tiroteio
 F#       E           B
Vamos dançar num cemitério de automóveis
    F#      E              B
Colher as flores que nascerem no asfalto
 C#                  B                    F# E B
Vamos todo mundo... tudo que se possa imaginar

Solo: F# E B
      A E

 F#        E            B
Vamos duvidar de tudo que é certo
 F#        E            B
Vamos namorar à luz do pólo petroquímico
 F#         E          B
Voltar pra casa num navio fantasma
 C#                  B               F# E B
Vamos todo mundo... ninguém pode faltar

( F# E B A E )

 F#    E     B
Se faltar calor, a gente esquenta
 F#   E      B
Se ficar pequeno, a gente aumenta
   F#            E     B
E se não for possível, a gente tenta
 C#                      B
Vamos velejar no mar de lama
 D#m                          C#
Se faltar o vento, a gente inventa
                         B
Vamos remar contra a corrente
       D#m                     C#
Desafinar do coro dos contentes

F# E B  F# E B

F# E B  F# E B

 C#                      B
Vamos velejar no mar de lama
 D#m                          C#
Se faltar o vento, a gente inventa
                         B
Vamos remar contra a corrente
       D#m                    C#
Desafinar do coro dos contentes

(F# E B  F# E B)
(F# E B  F# E B)
(A E F#)
Acordes para:
    Composição: Humberto GessingerColaboração e revisão:
    • Codinome
    • Jonas Bianchin

    0 comentários

      mostrar mais comentários

      Conseguiu tocar?

      85tocaram1ainda não

      Grave um vídeo tocando Pose e mande pra gente!

      00:00 / 00:00
      outros vídeos desta música
      repetirqualidadeautomática
      Outro vídeos desta música
        00:00 / 00:00
        automática
        OK