Notificações Amigos pendentes

      Engenheiros do Hawaii

      Somos Quem Podemos Ser

      743.099 exibições
      Tom: G
      (intro 2x)  G7M  C7M
      
      (violão 1 - 2x)
      
      
         G7M
      E|-------2---2-------2----------------------
      B|-----3---3-------3---3--------------------
      G|---4-----------4-------4------------------
      D|------------------------------------------
      A|------------------------------------------
      E|-3-----------3----------------------------
      
         p i m a m a p i m a m i
      
      
         C7M
      E|-------7---7-------7----------------------|
      B|-----8---8-------8---8--------------------|
      G|---9-----------9-------9------------------|
      D|------------------------------------------|
      A|------------------------------------------|
      E|-8-----------8----------------------------|
      
         p i m a m a p i m a m i
      
      (primeira parte)
          G7M                              C7M
      Um dia me disseram que as nuvens não eram de algodão
          G7M                                   C7M
      Um dia me disseram que os ventos às vezes erram a direção
         G7M                           C7M
      E tudo ficou tão claro, um intervalo na escuridão
              G7M                        C7M
      Uma estrela de brilho raro, um disparo para um coração
      
      (segunda parte)
         Bm7                           C7M
      A vida imita o vídeo, garotos inventam um novo inglês
         Bm7                         C7M
      Vivendo num país sedento um momento de embriaguês
      
      (refrão)
       Am7                Bm7
      Somos quem podemos ser
       Am7                Bm7  C7M
      Sonhos que podemos ter
      
      (intro 2x) G7M  C7M
      
      (variação da primeira parte)
          G7M                          C7M
      Um dia me disseram quem eram os donos da situação
              G7M                            C7M
      Sem querer eles me deram as chaves que abrem esta prisão
         G7M                             C7M
      E tudo ficou tão claro, o que era raro ficou comum
               G7M                          C7M
      Como um dia depois do outro, como um dia, um dia comum
      
      (segunda parte)
         Bm7                           C7M
      A vida imita o vídeo, garotos inventam um novo inglês
         Bm7                       C7M
      Vivendo num país sedento um momento de embriaguês
      
      (refrão)
       Am7                Bm7
      Somos quem podemos ser
       Am7                Bm7   C7M
      Sonhos que podemos ter
      
      (solo) G7M  C7M (2x)
             Bm7  C7M (2x)
             Am7  Bm7 C7M  D4(7/9)
      
      (violão solo)
      
      (parte 1 - 2x)
      
      
         G7M              C7M
      E|---------2-2-1/2\----------7-7-6/7\-------|
      B|-------3-----------------8----------------|
      G|-----4-----------------9------------------|
      D|-4/5--------------9/10--------------------|
      A|------------------------------------------|
      E|------------------------------------------|
      
         p   i m a m i   p     i m a m i
      
      (parte 2)
      
      
             Bm7        C7M           Bm7
      E|-7-8-8/10~--7-8-10/12-10--7-8-8/10--------|
      B|------------------------------------------|
      G|------------------------------------------|
      D|------------------------------------------|
      A|------------------------------------------|
      E|------------------------------------------|
      
      
             C7M      Am7           Bm7
      E|-7-8-8/12-10--10-8-7----------------------|
      B|---------------------10-8-7-7/10----------|
      G|------------------------------------------|
      D|------------------------------------------|
      A|------------------------------------------|
      E|------------------------------------------|
      
      
      (parte 3)
      
      
         C7M      D4(7/9)              harm.
      E|-15-14-12---------------------------------|
      B|----------15-13-12-15-13-12---------------|
      G|----------------------------14------------|
      D|-------------------------------12---------|
      A|------------------------------------------|
      E|------------------------------------------|
      
      
      (terceira parte)
          G7M                              C7M
      Um dia me disseram que as nuvens não eram de algodão
              G7M                            C7M
      Sem querer eles me deram as chaves que abrem esta prisão
      
        Bm7                           C7M
      Quem ocupa o trono tem culpa, quem oculta o crime, também
        Bm7                            C7M                       Bm7
      Quem duvida da vida tem culpa, quem evita a dúvida também tem
         C7M      Bm7          C7M
      uh uh       uh        uh uh
      
      (refrão)
       Am7                Bm7
      Somos quem podemos ser
       Am7                Bm7   C7M   G7M
      Sonhos que podemos ter
      
      Outras Tabs
      
      (solo introdução)
      
      
         G7M              C7M
      E|---------2-2-1/2\----------7-7-6/7\-------|
      B|-------3-----------------8----------------|
      G|-----4-----------------9------------------|
      D|-4/5--------------9/10--------------------|
      A|------------------------------------------|
      E|------------------------------------------|
      
         p   i m a m i    p    i m a m i
      
      dedilhados da primeira parte)
      
      (violão 2)
      
      
         G7M
      E|------------------------------------------|
      B|-----0-----0-----0-----0------------------|
      G|---0-----0-----0-----0--------------------|
      D|-------4-----2-----0----------------------|
      A|------------------------------------------|
      E|-3----------------------------------------|
      
         p i m p i m p i m p i m
      
      
         C7M
      E|-------0----------------------------------|
      B|-----0---0---------0-----0----------------|
      G|---0-------0-----0-----0------------------|
      D|-------------2h4-----2--------------------|
      A|-3----------------------------------------|
      E|------------------------------------------|
      
         p i m a m i p   i m p i m
      
      (dedilhados da segunda parte)
      
      (violão 1 - 2x)
      
      
         Bm7
      E|-------5---5-------5----------------------|
      B|-----7---7-------7---7--------------------|
      G|---7-----------7-------7------------------|
      D|------------------------------------------|
      A|------------------------------------------|
      E|-7-----------7----------------------------|
      
         p i m a m a p i m a m i
      
      
         C7M
      E|-------7---7-------7----------------------|
      B|-----8---8-------8---8--------------------|
      G|---9-----------9-------9------------------|
      D|------------------------------------------|
      A|------------------------------------------|
      E|-8-----------8----------------------------|
      
         p i m a m a p i m a m i
      
      (violão 2 - 2x)
      
      
         Bm7
      E|------------------------------------------|
      B|-------3-----3-----3----------------------|
      G|-----2---2-----2-----2--------------------|
      D|---0-------0-----0-----0------------------|
      A|-2----------------------------------------|
      E|------------------------------------------|
      
         p i m a m i a m i a m i
      
      
         C7M(9)
      E|------------------------------------------|
      B|-------3-----3-----3----------------------|
      G|-----4---4-----4-----4--------------------|
      D|---2-------2-----2-----2------------------|
      A|-3----------------------------------------|
      E|------------------------------------------|
      
         p i m a m i a m i a m i
      
      (dedilhados do refrão)
      
      (violão 1)
      
      
        Am7         Bm7         Am7         Bm7 C7M
      E|------3-----------5-----------3-----5---7-|
      B|----5---5-------7---7-------5---5---7---8-|
      G|--5-------5---7-------7---5-------5-7---9-|
      D|------------------------------------------|
      A|------------------------------------------|
      E|5-----------7-----------5-----------7---8-|
      
        p i m a m i...
      
      (violão 2)
      
      
         Am7         Bm7         Am7        Bm7 C7M
      E|-0-----------2-----------0----------2---3-|
      B|-1-----------3-----------1----------3---5-|
      G|-0-----------2-----------0----------2---4-|
      D|-2-----------4-----------2----------4---5-|
      A|-0-----------2-----------0----------2---3-|
      E|------------------------------------------|
         ↓           ↓           ↓          ↓   ↓
      
        Composição: Humberto GessingerColaboração e revisão:
        • Maruo
        • Joao
        • Gorbo
        • Julio
        • Digo
        • +1

        Comentários 42

        140 .
        • Henrique Henrique: Em 25/04/2016 15:16

          Muito facil, rs

        • Guilherme Guilherme: Em 01/09/2015 21:08

          alguem me explica como se entende esses desenhos? eu tentei bethoven a por elise só tinha esses desenhos

        • Haroldo Haroldo: Em 12/05/2015 10:02

          Nossa eu fiquei horrorizado demais porque essa música pelo que eu vi ela é muito difícil demais para tocar ela.

        • *carloseduardo.p._1 *carloseduardo.p._1: Em 28/01/2015 11:13

          Muito Bom !
          A banda merecia mais vídeo-aulas !

        • Alexandre Alexandre: Em 22/12/2014 16:51

          a culpa é dos pássaros

        • leck.silva.79 leck.silva.79: Em 01/08/2014 19:17

          Uhuuuuu consegui graças a Deus e ao CifraClub!!!

        • rafaeltairone.rocha rafaeltairone.rocha: Em 03/06/2014 16:58

          Esta dando erro ao imprimir.

        • wendel wendel: Em 22/05/2014 00:04

          essa musica e realmente o maximo nem parece ter esse pequeno numero de acordes.

        140 cancelar
        0:00 / 0:00
        1 versão de baixo exibições contribuição e correção
        1 versão de Guitar Proformatodownloadscontribuição
        1 versão de partiturasformatodownloadscontribuição
        play/pausefechar subir/descer velocidade
        6ª corda E5ª corda A4ª corda D3ª corda G2ª corda B1ª corda E
          acordes
          publicidade
          fechar
          ok