Cifra Club

Somos Quem Podemos Ser

Engenheiros do Hawaii

Cifra: Principal (violão e guitarra)
Tom: G
[Intro] G7M  C7M
        G7M  C7M

[Violão 1] 2x

   G7M
E|-------2---2-------2----------------------|
B|-----3---3-------3---3--------------------|
G|---4-----------4-------4------------------|
D|------------------------------------------|
A|------------------------------------------|
E|-3-----------3----------------------------|
   p i m a m a p i m a m i

   C7M
E|-------7---7-------7----------------------|
B|-----8---8-------8---8--------------------|
G|---9-----------9-------9------------------|
D|------------------------------------------|
A|------------------------------------------|
E|-8-----------8----------------------------|
   p i m a m a p i m a m i

[Primeira Parte]

    G7M                              C7M
Um dia me disseram que as nuvens não eram de algodão
    G7M                                   C7M
Um dia me disseram que os ventos às vezes erram a direção
   G7M                           C7M
E tudo ficou tão claro, um intervalo na escuridão
        G7M                        C7M
Uma estrela de brilho raro, um disparo para um coração

[Segunda parte]

   Bm7                           C7M
A vida imita o vídeo, garotos inventam um novo inglês
   Bm7                         C7M
Vivendo num país sedento um momento de embriaguês


[Refrão]
 Am7                Bm7
Somos quem podemos ser
 Am7                Bm7  C7M
Sonhos que podemos ter

( G7M  C7M )
( G7M  C7M )

[Primeira parte]

    G7M                          C7M
Um dia me disseram quem eram os donos da situação
        G7M                            C7M
Sem querer eles me deram as chaves que abrem esta prisão
   G7M                             C7M
E tudo ficou tão claro, o que era raro ficou comum
         G7M                          C7M
Como um dia depois do outro, como um dia, um dia comum

[Segunda Parte]

   Bm7                           C7M
A vida imita o vídeo, garotos inventam um novo inglês
   Bm7                       C7M
Vivendo num país sedento um momento de embriaguês

[Refrão]

 Am7                Bm7
Somos quem podemos ser
 Am7                Bm7   C7M
Sonhos que podemos ter

[Solo] G7M  C7M  G7M  C7M
       Bm7  C7M  Bm7  C7M 
       Am7  Bm7 C7M  D4(7/9)

[Parte 1 de 3]

   G7M              C7M
E|---------2-2-1/2\----------7-7-6/7\-------|
B|-------3-----------------8----------------|
G|-----4-----------------9------------------|
D|-4/5--------------9/10--------------------|
A|------------------------------------------|
E|------------------------------------------|
   p   i m a m i   p     i m a m i

[Parte 1 de 3]

   G7M              C7M
E|---------2-2-1/2\----------7-7-6/7\-------|
B|-------3-----------------8----------------|
G|-----4-----------------9------------------|
D|-4/5--------------9/10--------------------|
A|------------------------------------------|
E|------------------------------------------|
   p   i m a m i   p     i m a m i

[Parte 2 de 3]

       Bm7        C7M           Bm7
E|-7-8-8/10~--7-8-10/12-10--7-8-8/10--------|
B|------------------------------------------|
G|------------------------------------------|
D|------------------------------------------|
A|------------------------------------------|
E|------------------------------------------|

       C7M      Am7           Bm7
E|-7-8-8/12-10--10-8-7----------------------|
B|---------------------10-8-7-7/10----------|
G|------------------------------------------|
D|------------------------------------------|
A|------------------------------------------|
E|------------------------------------------|

[Parte 3 de 3]

   C7M      D4(7/9)              harm.
E|-15-14-12---------------------------------|
B|----------15-13-12-15-13-12---------------|
G|----------------------------14------------|
D|-------------------------------12---------|
A|------------------------------------------|
E|------------------------------------------|

[Terceira parte]

    G7M                              C7M
Um dia me disseram que as nuvens não eram de algodão
        G7M                            C7M
Sem querer eles me deram as chaves que abrem esta prisão

  Bm7                           C7M
Quem ocupa o trono tem culpa, quem oculta o crime, também
  Bm7                            C7M                       Bm7
Quem duvida da vida tem culpa, quem evita a dúvida também tem
   C7M      Bm7          C7M
uh uh       uh        uh uh

[Refrão]

 Am7                Bm7
Somos quem podemos ser
 Am7                Bm7   C7M   G7M
Sonhos que podemos ter

Outras Tabs

[Solo Intro - Violão 1]

   G7M              C7M
E|---------2-2-1/2\----------7-7-6/7\-------|
B|-------3-----------------8----------------|
G|-----4-----------------9------------------|
D|-4/5--------------9/10--------------------|
A|------------------------------------------|
E|------------------------------------------|
   p   i m a m i    p    i m a m i

[Dedilhado da primeira parte - Violão 2]

   G7M
E|------------------------------------------|
B|-----0-----0-----0-----0------------------|
G|---0-----0-----0-----0--------------------|
D|-------4-----2-----0----------------------|
A|------------------------------------------|
E|-3----------------------------------------|
   p i m p i m p i m p i m

   C7M
E|-------0----------------------------------|
B|-----0---0---------0-----0----------------|
G|---0-------0-----0-----0------------------|
D|-------------2h4-----2--------------------|
A|-3----------------------------------------|
E|------------------------------------------|
   p i m a m i p   i m p i m

[Dedilhados da segunda parte]

[Violão 1] 2x

   Bm7
E|-------5---5-------5----------------------|
B|-----7---7-------7---7--------------------|
G|---7-----------7-------7------------------|
D|------------------------------------------|
A|------------------------------------------|
E|-7-----------7----------------------------|
   p i m a m a p i m a m i

   C7M
E|-------7---7-------7----------------------|
B|-----8---8-------8---8--------------------|
G|---9-----------9-------9------------------|
D|------------------------------------------|
A|------------------------------------------|
E|-8-----------8----------------------------|
   p i m a m a p i m a m i

[Violão 2] 2x

   Bm7
E|------------------------------------------|
B|-------3-----3-----3----------------------|
G|-----2---2-----2-----2--------------------|
D|---0-------0-----0-----0------------------|
A|-2----------------------------------------|
E|------------------------------------------|
   p i m a m i a m i a m i

   C7M(9)
E|------------------------------------------|
B|-------3-----3-----3----------------------|
G|-----4---4-----4-----4--------------------|
D|---2-------2-----2-----2------------------|
A|-3----------------------------------------|
E|------------------------------------------|
   p i m a m i a m i a m i

[Dedilhados do refrão]

[Violão 1]

  Am7         Bm7         Am7         Bm7 C7M
E|------3-----------5-----------3-----5---7-|
B|----5---5-------7---7-------5---5---7---8-|
G|--5-------5---7-------7---5-------5-7---9-|
D|------------------------------------------|
A|------------------------------------------|
E|5-----------7-----------5-----------7---8-|
  p i m a m i

[Violão 2]

   Am7         Bm7         Am7        Bm7 C7M
E|-0-----------2-----------0----------2---3-|
B|-1-----------3-----------1----------3---5-|
G|-0-----------2-----------0----------2---4-|
D|-2-----------4-----------2----------4---5-|
A|-0-----------2-----------0----------2---3-|
E|------------------------------------------|
exibições 943.540
Acordes para:
    Composição: Humberto Gessinger Colaboração e revisão:

    0 comentários

    mostrar mais comentários

    Conseguiu tocar?

    96 tocaram 10 ainda não

    Grave um vídeo tocando Somos Quem Podemos Ser e mande pra gente!

    00:00 / 00:00
    outros vídeos desta música
    repetir qualidade Automático
    Outros vídeos desta música
    00:00 / 00:00
    Automático
    Capítulos
    • Início
    • Tocando a música
    • Acordes da introdução (violão 1)
    • Tocando introdução
    • Ensinando dedilhado da intro (violão 1)
    • Ensinando solo da intro (violão 2)
    • Acordes da primeira parte
    • Tocando primeira parte
    • Ensinando dedilhado da 1ª parte (violão 1)
    • Ensinando dedilhado da 1ª parte (violão 2)
    • Acordes da segunda parte (violão 1)
    • Tocando segunda parte
    • Ensinando dedilhado da 2ª parte (violão 1)
    • Acordes da segunda parte (violão 2)
    • Ensinando dedilhado da 2ª parte (violão 2)
    • Acordes do refrão (violão 1)
    • Tocando refrão
    • Ensinando dedilhado do refrão (violão 1)
    • Acordes do refrão (violão 2)
    • Ensinando ritmo do refrão (violão 2)
    • Acordes da base do solo (violão 1)
    • Tocando solo
    • Ensinando solo (violão 1)
    • Ensinando solo (violão 2)
    • Ensinando solo (violão 2) (parte 1)
    • Ensinando solo (violão 2) (parte 2)
    • Ensinando solo (violão 2) (parte 3)
    • Dicas e acorde da terceira parte e finalização
    • Tocando terceira parte e final
    • Ensinando dedilhado final (violão 1)
    • Ensinando dedilhado final (violão 2)
    • Encerramento
    OK