Cifra Club

Aprenda

Surfando Karmas & Dna

Engenheiros do Hawaii

Cifra: Principal (violão e guitarra)
tom: Gm
[Intro] Gm  Gm/F  Em7(5-)  Eb7M

[Primeira Parte]

Gm               Gm/F        
   Quantas vezes     eu estive 
Em7(5-)                    Eb7M
       Cara à cara com a pior metade?
Gm             Gm/F        
   A lembrança     no espelho 
Em7(5-)            Eb7M
       A esperança      na outra margem
Gm                  Gm/F          
   Quantas vezes a gente sobrevive 
Em7(5-)        Eb7M
       A hora da verdade?
Gm             Gm/F      
   Na falta de algo melhor 
Em7(5-)              Eb7M
        Nunca me faltou coragem
   A
Se eu soubesse antes o que sei agora
Ab         Bb                 
  Erraria tudo exatamente igual

( Gm  Gm/F  Em7(5-)  Eb7M )
( Gm  Gm/F  Em7(5-)  Eb7M )

[Segunda Parte]

Gm                  Gm/F            
   Tenho vivido um dia por semana
Em7(5-)                Eb7M
       Acaba a grana, mês ainda tem
Gm             Gm/F        
   Sem passado     nem futuro
Em7(5-)              Eb7M
       Eu vivo um dia     de cada vez
Gm               Gm/F      
   Quantas vezes     eu estive 
Em7(5-)                    Eb7M
       Cara à cara com a pior metade?
Gm                  Gm/F           
   Quantas vezes a gente sobrevive 
Em7(5-)        Eb7M
       A hora da verdade?
   A
Se eu soubesse antes o que sei agora
Ab         Bb                   
   Iria embora antes do final

( Gm  Bb  C  Bb )
( Gm  Bb  C  Bb )

E|------------------------------------------|
B|-8-8p6-8-8p6-8--11-11\8-------------------|
G|------------------------------------------|
D|------------------------------------------|
A|------------------------------------------|
E|------------------------------------------|

E|---------------8--------------------------|
B|-8-8p6-8-8p6-8---6/8----------------------|
G|------------------------------------------|
D|------------------------------------------|
A|------------------------------------------|
E|------------------------------------------|

E|------------------------------------------|
B|-8-8p6-8-8p6-8--11-11\8-------------------|
G|------------------------------------------|
D|------------------------------------------|
A|------------------------------------------|
E|------------------------------------------|

E|---------------8--------------------------|
B|-8-8p6-8-8p6-8----------------------------|
G|------------------------------------------|
D|------------------------------------------|
A|------------------------------------------|
E|------------------------------------------|

[Refrão]

C                 Gm
  Surfando karmas e DNA
      Bb
Não quero ter o que eu não tenho
        D
Eu não tenho medo de errar
C                 Gm
  Surfando karmas e DNA
      Bb
Não quero ser o que eu não sou
        D                                 
Eu não sou maior que o mar
C    Gm  Bb    D
  Oh oh  oh oh oh

( Gm  Bb  C  Bb )
( Gm  Bb  C  Bb )

E|------------------------------------------|
B|-8-8p6-8-8p6-8--11-11\8-------------------|
G|------------------------------------------|
D|------------------------------------------|
A|------------------------------------------|
E|------------------------------------------|

E|---------------8--------------------------|
B|-8-8p6-8-8p6-8---6/8----------------------|
G|------------------------------------------|
D|------------------------------------------|
A|------------------------------------------|
E|------------------------------------------|

E|------------------------------------------|
B|-8-8p6-8-8p6-8--11-11\8-------------------|
G|------------------------------------------|
D|------------------------------------------|
A|------------------------------------------|
E|------------------------------------------|

E|---------------8-6\-----------------------|
B|-8-8p6-8-8p6-8------3~--------------------|
G|------------------------------------------|
D|------------------------------------------|
A|------------------------------------------|
E|------------------------------------------|

[Ponte]

Gm               Gm/F     
   Na falta do que fazer
Em7(5-)                  Eb7M
       Inventei a minha liberdade

( C  Gm  Bb  D )

E|-8...-8p6---6-10~--6----10-6--------------|
B|----------8----------8-------6------------|
G|------------------------------------------|
D|------------------------------------------|
A|------------------------------------------|
E|------------------------------------------|

E|-10-11-8-10-5~----5---8-10-8~-------------|
B|----------------6---6---------------------|
G|------------------------------------------|
D|------------------------------------------|
A|------------------------------------------|
E|------------------------------------------|

[Refrão]

C                 Gm
  Surfando karmas e DNA
Bb    D
Oh oh oh

[Final] Gm  Bb  C  Bb 
        Gm  Bb  C  Bb  Gm

E|------------------------------------------|
B|-8-8p6-8-8p6-8--11-11\8-------------------|
G|------------------------------------------|
D|------------------------------------------|
A|------------------------------------------|
E|------------------------------------------|

E|---------------8--------------------------|
B|-8-8p6-8-8p6-8---6/8----------------------|
G|------------------------------------------|
D|------------------------------------------|
A|------------------------------------------|
E|------------------------------------------|

E|------------------------------------------|
B|-8-8p6-8-8p6-8--11-11\8-------------------|
G|------------------------------------------|
D|------------------------------------------|
A|------------------------------------------|
E|------------------------------------------|

E|---------------8--------------------------|
B|-8-8p6-8-8p6-8---6/8--8-8---6-8-----------|
G|--------------------------7---------------|
D|------------------------------------------|
A|------------------------------------------|
E|------------------------------------------|
Composição de Humberto Gessinger
Colaboração e revisão:
  • Thiago Almeida
  • vinicius alves
  • Guilherme Viana
252.642 exibições
    • ½ Tom
    • Am
    • Bbm
    • Bm
    • Cm
    • C#m
    • Dm
    • Ebm
    • Em
    • Fm
    • F#m
    • Gm
    • G#m
  • Adicionar à lista

    0 comentários

    Ver todos os comentários

    Conseguiu tocar?

    42 Tocaram 1 Ainda não

    Grave um vídeo tocando Surfando Karmas & Dna e nos envie!

    00:00 / 00:00
    Outros vídeos desta música
    Repetir Qualidade Automático
    Outros vídeos desta música
    00:00 / 00:00
    Automático

    Cifra Club Pro

    Aproveite o Cifra Club com benefícios exclusivos e sem anúncios
    Cifra Club Pro
    Aproveite o Cifra Club com benefícios exclusivos e sem anúncios
    OK