Cifra Club

Aprenda

Terra de Gigantes

Engenheiros do Hawaii

Cifra: Principal (violão e guitarra)
tom: E
[Intro] E
        E  B/D#  C#m  Ab/C
        A  E/G#  A5(9)  B11

   E
E|--------------------------------0---------|
B|-----9-----9-----9-----9--------0---------|
G|-9-----9-----9-----9-----9------1---------|
D|---9-----9-----9-----9-----9----2---------|
A|-7---------------------------7--2---------|
E|--------------------------------0---------|

[Dedilhado Padrão]

   E          B/D#           C#m
E|---------------------------------9--------|
B|-------9------------12---------9---9------|
G|-----9---9-------11----11----9------------|
D|---9-----------9--------------------------|
A|-7----------------------------------------|
E|------------11-------------9--------------|

   Ab/C       A
E|------------------------------------------|
B|-------9----------5-----------------------|
G|-----8---8------6---6---------------------|
D|---6----------7---------------------------|
A|------------------------------------------|
E|-8----------5-----------------------------|

   E/G#       A5(9)      B11  
E|------------------0----------0------------|
B|-------5--------0---0------4--------------|
G|-----4---4----2----------4----------------|
D|---2--------------------------------------|
A|------------0----------2------------------|
E|-4----------------------------------------|

[Solo]

E|------7-9---------------------------------|
B|-7h9~-----7h9~-7p5-7~-7/9--5---------5-4~-|
G|---------------------------4h6-----4------|
D|-------------------------------4h6--------|
A|------------------------------------------|
E|------------------------------------------|

E|------7-12b14r12~--11~--12----------------|
B|-7h9~-------------------12--12------------|
G|----------------------------13--9--8------|
D|--------------------------------9--9------|
A|------------------------------------------|
E|------------------------------------------|

[Primeira Parte]

E         B/D#                         C#m    Ab/C
 Hey, mãe,     eu tenho uma guitarra elétrica
   A                           E/G#                    
Durante muito tempo, isso foi tudo 
                 A5(9)  B11
O que eu queria ter
       E      B/D#                 C#m        Ab/C
Mas, hey, mãe,     alguma coisa ficou pra trás
A                   E/G#              A5(9)   B11
  Antigamente eu sabia exatamente o que fazer
E          B/D#                   C#m        Ab/C
  Hey, mãe,   tenho uns amigos tocando comigo
 A                 E/G#              
Eles são legais, além do mais 
      A5(9)       B11
Não querem nem saber
  E            B/D#  C#m                      Ab/C
Que agora, lá fora, todo mundo todo é uma ilha
    A             E/G#  A5(9)               B11
Há milhas e milhas           de qualquer lugar

[Refrão]

Violão 1
E|------------------------------------------|
B|-------9----------6-----------------------|
G|-----9---9------6---6---------------------|
D|---9----------6---------------------------|
A|-7----------4-----------------------------|
E|------------------------------------------|

Violão 2
E|------------------------------------------|
B|---0-----0-----0-----0--------------------|
G|-----3-----3-----3-----3------------------|
D|-4-----4-----4-----4----------------------|
A|------------------------------------------|
E|------------------------------------------|

E|------------------------------------------|
B|---0-----0-----0--------------------------|
G|-----1-----1-----1h2p1--------------------|
D|-2-----2-----2---------2------------------|
A|-------------------------2\1--------------|
E|------------------------------------------|

E|------------------------------------------|
B|---0-----0-----0-----0--------------------|
G|-----3-----3-----3-----3------------------|
D|-4-----4-----4-----4----------------------|
A|------------------------------------------|
E|------------------------------------------|

E|-----------------4h5p4--------------------|
B|---0-----0-----0-------5------------------|
G|-----1-----1-------------4\3--------------|
D|-2-----2-----2----------------------------|
A|------------------------------------------|
E|------------------------------------------|

E|------------------------------------------|
B|---0-----0-----0-----0--------------------|
G|-----3-----3-----3-----3------------------|
D|-4-----4-----4-----4----------------------|
A|------------------------------------------|
E|------------------------------------------|

E|------------------------------------------|
B|---0-----0-----0-----0--------------------|
G|-----2-----2-----6-----6------------------|
D|-2-----2-----4-----4-----4----------------|
A|------------------------------------------|
E|------------------------------------------|

F#7(11)                   E
        Nessa terra de gigantes
F#7(11)                             E
        Eu sei já ouvimos tudo isso antes
F#7(11)                    A5(9)           B5(9)    
        A juventude é uma banda numa propaganda 
           E    C#  E  C#
De refrigerantes

[Primeira Parte Com Variação]

E           B/D#        C#m               Ab/C
As revistas as revoltas as conquistas da juventude
 A            E/G#        
São heranças são motivos 
  A5(9)        B11
Pras mudanças de atitude
E                       B/D#  C#m             Ab/C
Os discos as danças os riscos     da juventude
   A            E/G#           A5(9)    
A cara limpa a roupa suja esperando 
             B11           
Que o tempo mude

[Refrão]

F#7(11)                   E
        Nessa terra de gigantes
F#7(11)                       E
        Tudo isso já foi dito antes
F#7(11)                    A5(9)           B5(9)    
        A juventude é uma banda numa propaganda de
        E    C#  E  C#
Refrigerantes

[Primeira Parte Com Variação]

E          B/D#                      C#m  Ab/C
  Hey, mãe,     já não esquento a cabeça
   A                          
Durante muito tempo isso foi 
 E/G#                A5(9)  B11
Só o que eu podia fazer
     E       B/D#      
Mas, hey mãe      
                       C#m   Ab/C
Por mais que a gente cresça
    A               
Há sempre  coisas que 
   E/G#         A5(9)        B11
A gente não consegue entender
    E         B/D#                       C#m          
Por isso, mãe,     só me acorda quando o Sol 
          Ab/C
Tiver se posto
A                     E/G#            A5(9)  B11
Eu não quero ver meu rosto antes de anoite__cer
 E              B/D#    C#m             Ab/C
Pois agora, lá fora, o mundo todo é uma ilha
    A              E/G#  A5(9)  B11
Há milhas e milhas

[Refrão]

F#7(11)                   E
        Nessa terra de gigantes
F#7(11)                          E
        Que trocam vidas por diamantes
F#7(11)                    A5(9)           B5(9)           
        A juventude é uma banda numa propaganda de 
           E  C#  E  C#
Refrigerantes

( E  B/D#  C#m  Ab/C )
( A  E/G#  A5(9)  B11 )
( E  B/D#  C#m  Ab/C )
( A  E/G#  A5(9)  B11 )

[Refrão]

F#7(11)                   E
        Nessa terra de gigantes
F#7(11)                          E
        Que trocam vidas por diamantes
F#7(11)                    A5(9)           B5(9)           
        A juventude é uma banda numa propaganda de 
        E     C#
Refrigerantes
Composição de Humberto Gessinger
Colaboração e revisão:
1.437.119 exibições
  • Simplificar cifra
    • ½ Tom
    • A
    • Bb
    • B
    • C
    • Db
    • D
    • Eb
    • E
    • F
    • F#
    • G
    • Ab
  • Adicionar à lista

    0 comentários

    Ver todos os comentários

    Conseguiu tocar?

    106 Tocaram 16 Ainda não

    Grave um vídeo tocando Terra de Gigantes e nos envie!

    00:00 / 00:00
    Outros vídeos desta música
    Repetir Qualidade Automático
    Outros vídeos desta música
    00:00 / 00:00
    Automático
    Capítulos
    • Início
    • Tocando a música
    • Acordes da música
    • Tocando Introdução - Estrofes
    • Ensinado Introdução e Estrofes (Dedilhado)
    • Ensinando Solo (Introdução)
    • Acordes do Refrão
    • Tocando o Refrão
    • Ensinando Refrão e Passagem
    • Ensinando Refrão (Dedilhado)
    • Ensinando arranjos do Refrão
    • Encerramento

    Cifra Club Pro

    Aproveite o Cifra Club com benefícios exclusivos e sem anúncios
    Cifra Club Pro
    Aproveite o Cifra Club com benefícios exclusivos e sem anúncios
    OK