To Go Beyond

Enya

Composição de: Enya / Roma Ryan
tom: D
The tab is for the vocal, until 1:21 where it follows the violin. 
 
~~~~~~ = vibrato 
/ or  = slide 
 
 
E|----------------------------------------------------------------------- 
B|---10---8--7-------7--8--10-----7-----------------7-----8--7----------- 
G|--------------9--------------------7-----------7--------------9----7--- 
D|--------------------------------------9-------------------------------- 
A|----------------------------------------------------------------------- 
E|----------------------------------------------------------------------- 
 
 
E|-------------------- 
B|---8---7------------ 
G|-----------7---9---- 
D|-------------------- 
A|-------------------- 
E|-------------------- 
 
 
E|--------------------------------------------------|| 
B|---10---8--7-------7--8--10-----7-----------------|| Play 2 times ? 
G|--------------9--------------------7------7--6----|| 
D|--------------------------------------9-----------|| 
A|--------------------------------------------------|| 
E|--------------------------------------------------|| 
 
 
Part (I) Ends here, but Part (II) continues at the times below: 
 
  1:10                 1:21 (Violin) 
E|--------------------------------------------------------7~~---10~~~---- 
B|----------7------------7~~~---8~~~---10~~~---------7~~----------------- 
G|---7---7-----9------------------------------9~~~----------------------- 
D|----------------------------------------------------------------------- 
A|----------------------------------------------------------------------- 
E|----------------------------------------------------------------------- 
 
 
E|---10---8---7-----------------------------------------7---------------- 
B|----------------10~~~---7~~--8~~--7~~~~-----------7------7---8~~~~~---- 
G|------------------------------------------9---7------------------------ 
D|----------------------------------------------------------------------- 
A|----------------------------------------------------------------------- 
E|----------------------------------------------------------------------- 
 
 
E|----------------------------------------------------------------------- 
B|--7~~~------------8~~---7~~-------------------------------------------- 
G|---------9~~~-----------------9~~~------------------------------------- 
D|----------------------------------------------------------------------- 
A|----------------------------------------------------------------------- 
E|----------------------------------------------------------------------- 
Página 1 / 1

Letras e título
Acordes e artista

resetar configurações
OK