Cifra Club

Aprenda

O Velho do Cachimbo

Epidemia Tipo 5

Cifra: Principal (violão e guitarra)
tom: C
Intro 2x: C  D  F  G

E|--8----10----8------8--8--7--8--10----12--10-----12-10-----------------8--------|
B|-----------------------------------------------------------12-10/8-----------10-|
G|-------------------------------------------------------------------10-----10----|
D|--------------------------------------------------------------------------------|
A|--------------------------------------------------------------------------------|
E|--------------------------------------------------------------------------------|

E|----------------10-------------12--10---|
B|-------------8-----8--10p12----------12-|
G|-10-10p9p10-----------------------------|
D|----------------------------------------|
A|----------------------------------------|
E|----------------------------------------|

  C                          D
Eu já procurei em todo lugar, eu não consigo encontrar,
F                  G
Você não tem culpa, com que os outros não prestam atenção.
C                               D
Agente tenta dar o máximo de si, pra conseguir,
F                    G
Mas sempre foi fácil, criticar o nosso trabalho.

  C                        D
O velho sentado na calçada, com o cachimbo na mão,
F                 G
Olhando pro mundo, dizendo que não tem solução.
C                                    D
Eu acho até mesmo que ele está certo, nosso futuro é incerto,
F                  G
Ninguém se respeita quem tem dinheiro é que manda na mesa.

Refrão 2x:
 F                              Am
Os homens de gravata não estão sós,             
 F                             G
Praticando crimes em cima de nós.               
 F                                     Am  
Não venha me dizer que existe alguém certo,     
 F                                   G
Quem tem canseira assim morreu no deserto.      

(Intro)
Colaboração e revisão:
  • Natan Soares
81 exibições
    • ½ Tom
    • A
    • Bb
    • B
    • C
    • Db
    • D
    • Eb
    • E
    • F
    • F#
    • G
    • Ab
  • Adicionar à lista

    0 comentários

    Ver todos os comentários

    Conseguiu tocar?

    0 Tocaram 0 Ainda não

    Grave um vídeo tocando O Velho do Cachimbo e nos envie!

    00:00 / 00:00
    outros vídeos desta música
    repetir qualidade Automático
    Outros vídeos desta música
    00:00 / 00:00
    Automático

    Cifra Club Pro

    Aproveite o Cifra Club com benefícios exclusivos e sem anúncios
    Cifra Club Pro
    Aproveite o Cifra Club com benefícios exclusivos e sem anúncios
    OK