Cifra Club

Aprenda

Cocaine

Eric Clapton

Cifra: Guitarra (violão e guitarra)
Já pensou em usar uma coleção de roupas do Cifra Club? Responda as perguntas abaixo e nos ajude nessa missão! →
tom: E
[Introdução 4x] E5  D5  E5  
                D5

E|-----------------------------------------------------|
B|-----------------------------------------------------|
G|-----------------------------------------------------|
D|--------------0h2~----0-------0----------------------|
A|-0h2p0h2p...-------------0h2----0--------------------|
E|----------------------------------3b--0--------------|

E|-----------------------------------------------------|
B|-3-0-------------------------------------------------|
G|------2---0h1----------------------------------------|
D|---------------2--0--2--------0----------------------|
A|--------------------------0h2----0-------------------|
E|-------------------------------------3b--------------|

[Primeira Estrofe]

        E5    D5  E5
If you wanna hang out 
              D5
You've got to    take her out
   E5   D5  E5  D5
Cocaine

E|-----------------------------------------------------|
B|-----------------------------------------------------|
G|-7/9\7~~---------------------------------------------|
D|-7/9\7~~---------------------------------------------|
A|-----------------------------------------------------|
E|-----------------------------------------------------|

        E5    D5  E5  D5
If you wanna get down

Down on the ground
   E5   D5  E5  D5
Cocaine

E|-----------------------------------------------------|
B|-----------------------------------------------------|
G|-7/9\7~~---------------------------------------------|
D|-7/9\7~~---------------------------------------------|
A|-----------------------------------------------------|
E|-----------------------------------------------------|

[Refrão]

           E5
She don't lie
           D5
She don't lie
           C5  B5
She don't lie
 
   E5   D5  E5  D5
Cocaine

( E5  D5  E5  D5 )

E|-----------------------------------------------------|
B|-----------------------------------------------------|
G|-4-4-2-4----0h1-1h2----------------------------------|
D|-2-2-0-2----2---0------------------------------------|
A|-----------------------------------------------------|
E|-----------------------------------------------------|

[Segunda Estrofe]

        E5     D5  E5
If you got bad    news
          D5
You wanna    kick them blues
   E5   D5  E5  D5
Cocaine

E|-----------------------------------------------------|
B|-----------------------------------------------------|
G|-1-1-0-1----0h1-1h2----------------------------------|
D|-2-2-0-2----2---0------------------------------------|
A|-----------------------------------------------------|
E|-----------------------------------------------------|

E|-----------------------------------------------------|
B|-----------------------------------------------------|
G|-----------------------------------------------------|
D|---------0-------------------------------------------|
A|-0h2-2-2---------------------------------------------|
E|-----------------------------------------------------|

           E5    D5  E5
When your day is    done 
     D5
And you wanna run
   E5   D5  E5  D5
Cocaine

E|-----------------------------------------------------|
B|-----------------------------------------------------|
G|-7/9\7~~---------------------------------------------|
D|-7/9\7~~---------------------------------------------|
A|-----------------------------------------------------|
E|-----------------------------------------------------|

[Refrão]

           E5
She don't lie
           D5
She don't lie
           C5  B5
She don't lie

   E5   D5  E5  D5
Cocaine

( E5  D5  E5  D5 )

E|-----------------------------------------------------|
B|-----------------------------------------------------|
G|-1-1-0-1----0h1-1h2----------------------------------|
D|-2-2-0-2----2---0------------------------------------|
A|-----------------------------------------------------|
E|-----------------------------------------------------|

[Solo]

E|-----------------------------------------------------|
B|-----------------------------------------------------|
G|----------12b----------------------------------------|
D|-12-14~--------14p12-14--12-14--14--12--14~----------|
A|-----------------------------------------------------|
E|-----------------------------------------------------|

E|-----------------------------------------------------|
B|-----------------------------------------------------|
G|-12--12b---------------------------------------------|
D|----------14\----------------------------------------|
A|-----------------------------------------------------|
E|-----------------------------------------------------|

E|-----------------------------------------------------|
B|-12-----12-----12-------12--------12-----12--12------|
G|-14b16--14b16--14b16----14b16----b16r14--14--14------|
D|-----------------------------------------------------|
A|-----------------------------------------------------|
E|-----------------------------------------------------|

E|-----------------------------------------------------|
B|-12--------------------------------------------------|
G|----14b16-12-----------------------------------------|
D|-------------14-14-12-14--14--12~--------------------|
A|-----------------------------------------------------|
E|-----------------------------------------------------|

E|----------12-----------------------------------------|
B|-------12----15-12-----------------------------------|
G|-14b16-------------14b16-14-12----14b16--------------|
D|-------------------------------14--------------------|
A|-----------------------------------------------------|
E|-----------------------------------------------------|

E|-----------------------------------------------------|
B|-----------------------------------------------------|
G|-12--------------------------------------------------|
D|----14-14--12----14----------------------------------|
A|-----------------------------------------------------|
E|-----------------------------------------------------|

E|-----------------------------------------------------|
B|-15---------15---------------------------------------|
G|----14b16--b16b14-12------12-------------------------|
D|---------------------14------12----------------------|
A|-----------------------------------------------------|
E|-----------------------------------------------------|

E|-----------------------------------------------------|
B|-------12--------------------------------------------|
G|-------12-----------12b------------------------------|
D|-14-14----14--12-14----------------------------------|
A|-----------------------------------------------------|
E|-----------------------------------------------------|

E|----------12-----------------------------------------|
B|-------12----15-12----------------------12-----------|
G|-14b16-------------14b16-14-12----14b16--------------|
D|-------------------------------14--------------------|
A|-----------------------------------------------------|
E|-----------------------------------------------------|

E|-----------------------------------------------------|
B|-15------15---15---15---15---------------------------|
G|-14b16--b16--b16--b16--b16r14----12------------------|
D|------------------------------------14~--------------|
A|-----------------------------------------------------|
E|-----------------------------------------------------|

E|-12--------------------------------------------------|
B|----15--15------15-----12------12b-------------------|
G|--------14b16--b16r14--12------12b-------------------|
D|--------------------------14--------14p12-14~--------|
A|-----------------------------------------------------|
E|-----------------------------------------------------|

E|-----------------------------------------------------|
B|----------12b----12b---------------------------------|
G|----------12b----12b---------------------------------|
D|-12-14-14--------------14~---------------------------|
A|-----------------------------------------------------|
E|-----------------------------------------------------|

E|-----------------------------------------------------|
B|----------12b---12---12---12---12--------------------|
G|----------12b---12---12---12---12--------------------|
D|-------12---------------------------14p12-14~--------|
A|-12h14-----------------------------------------------|
E|-----------------------------------------------------|

[Terceira Estrofe]

          E5     D5  E5
If your thing is    gone
     D5
And you wanna ride on
   E5   D5  E5  D5
Cocaine

E|-----------------------------------------------------|
B|-----------------------------------------------------|
G|-1-1-0-1----0h1-1h2----------------------------------|
D|-2-2-0-2----2---0-------------0h2--------------------|
A|------------------------0h2-2------------------------|
E|-----------------------------------------------------|

          E5   D5  E5
Don't forget this fact
     D5
You can't get it back
   E5   D5  E5  D5
Cocaine

E|-----------------------------------------------------|
B|-----------------------------------------------------|
G|-1-1-0-1----1---1h2----------------------------------|
D|-2-2-0-2----2---0------------------------------------|
A|-----------------------------------------------------|
E|-----------------------------------------------------|

[Refrão]

           E5
She don't lie
           D5
She don't lie
           C5  B5
She don't lie

   E5   D5  E5  D5
Cocaine

( E5  D5  E5  D5 )

E|-----------------------------------------------------|
B|-----------------------------------------------------|
G|-1-1-0-1------------2--------------------------------|
D|-2-2-0-2--------0h2-0--------------------------------|
A|------------0h2--------------------------------------|
E|-----------------------------------------------------|

E|-----------------------------------------------------|
B|-----------------------------------------------------|
G|-1-1-0-1----1---1h2----------------------------------|
D|-2-2-0-2----2---0------------------------------------|
A|-----------------------------------------------------|
E|-----------------------------------------------------|

           E5
She don't lie
           D5
She don't lie
           C5  B5
She don't lie

   E5   D5  E5  D5
Cocaine

E|-----------------------------------------------------|
B|-----------------------------------------------------|
G|-4-4-2-4------------2--------------------------------|
D|-2-2-0-2--------0h2-0--------------------------------|
A|------------0h2--------------------------------------|
E|-----------------------------------------------------|

E|-----------------------------------------------------|
B|-----------------------------------------------------|
G|-1-1-0-1----0h1-1h2----------------------------------|
D|-2-2-0-2----2---0------------------------------------|
A|-----------------------------------------------------|
E|-----------------------------------------------------|

[Final] E5  D5  E5  D5
Composição de J.J. Cale
Colaboração e revisão:
  • Vinícius Dias
1.530 exibições
    • ½ Tom
    • A
    • Bb
    • B
    • C
    • Db
    • D
    • Eb
    • E
    • F
    • F#
    • G
    • Ab
  • Adicionar à lista

    0 comentários

    Ver todos os comentários
    00:00 / 00:00
    Outros vídeos desta música
    Repetir Qualidade Automático
    Outros vídeos desta música
    00:00 / 00:00
    Automático
    Capítulos
    • Tocando a Música
    • Apresentação / Equipamentos
    • Ensinando Riff Principal da Guitarra 1
    • Ensinando Riff Principal da Guitarra 2
    • Ensinando Refrão
    • Ensinando Refrão (Variação)
    • Ensinando Solo da Introdução
    • Ensinando Riff da Primeira Estrofe
    • Ensinando Riff do Primeiro Refrão
    • Ensinando Riff da Segunda Estrofe
    • Ensinando Riff do Segundo Refrão
    • Ensinando Terceira Estrofe
    • Ensinando Riff do Refrão Final
    • Dica
    • Ensinando Solo - Parte 1 de 8
    • Ensinando Solo - Parte 2 de 8
    • Ensinando Solo - Parte 3 de 8
    • Ensinando Solo - Parte 4 de 8
    • Ensinando Solo - Parte 5 de 8
    • Ensinando Solo - Parte 6 de 8
    • Ensinando Solo - Parte 7 de 8
    • Ensinando Solo - Parte 8 de 8
    • Encerramento

    Cifra Club Pro

    Aproveite o Cifra Club com benefícios exclusivos e sem anúncios
    Cifra Club Pro
    Aproveite o Cifra Club com benefícios exclusivos e sem anúncios
    OK