Cifra Club

Aprenda

Layla

Eric Clapton

Cifra: Versão 4 (violão e guitarra)
tom: E
Versão Original (Derek & The Dominoes)

Riff 1 :
                    Dm  C  A#   C    Dm
e||---------------------------------------------------| 
B||---------------------------------------------------| 
G||------------------2-----3-3--5-5--7----------------| 
D||------0h3p0---0---0-----3-3--5-5--7----------------| 
A||--0h3-------3--------3--1-1--3-3--5----------------| 
E||---------------------------------------------------| 

Riff 2 :
                
e||--------10h13p10----10--13b15-13-12----10~----------10h13p10----10--15b17-12----10----------| 
B||--10h13----------13-----------------13--------10h13----------13--------------13-------------| 
G||--------------------------------------------------------------------------------------------| 
D||--------------------------------------------------------------------------------------------| 
A||--------------------------------------------------------------------------------------------| 
E||--------------------------------------------------------------------------------------------| 

                          C#m7                       G#7   
                What will you do when you get lonely 
                C#m7       C        D         E*      
                With nobody waiting by your side
                F#m           B          E                 A        
                You've been running and hiding much too long, 
                F#m         B7          E         A
                You know it's just your foolish pride.

                [REFRÃO:]
        
                    Dm  Bb     C             Dm                             
                Layla,       you got me on my knees.  
                    Dm  Bb     C                Dm         
                Layla,       I'm begging darling please.      
                      Dm  Bb     C             Dm                               
                Layla,       darling won't you ease my worried mind.         
             
                 C#m7                       G#7     
                Tried to give you consolation, 
                C#m7       C        D       E*             
                Your old man won't let you down
                F#m    B      E                 A   E/G# 
                Like a fool, I fell in love with you, 
                F#m         B           E         A
                Turned the whole world upside down

                [REFRÃO]


                 C#m7                       G#7   
                Let's make the best of the situation 
                C#m7      C       D     E* 
                Before I fin'lly go insane.
                F#m          B        E            A  E/G#
                Please don't say we'll never find a way 
                F#m         B7      E        A
                And tell me all my loves in vain

                [REFRÃO]

Durante os versos a guitarra 2, que faz o riff 2, fica fazendo alguns solinhos.

          (Termino do riff e refrão)     C#m7          G#7        C#m7 
e||--------10h13p10----10--15b17-12---------------------------------|
B||--10h13----------13--------------13-13b15--12br-9--11b12--11br-9-|
G||-----------------------------------------------------------------|
D||-----------------------------------------------------------------|
A||-----------------------------------------------------------------|
E||-----------------------------------------------------------------|

          C       D        E*
---------------------------12------------------------------|
-----------------------------------------------------------|
-11b12--11br-9--11---11b12-----11br-9--11-9----------------|
--------------------------------------------11-------------|
-----------------------------------------------------------|
-----------------------------------------------------------|

    F#m            B            E             A           
e||------------------------------------------------------|
B||-------------------------------------12-12------------|
G||----9-9-9-9-----9h11p9-----9--11b12---------11br-9----|
D||-11----------11---------11-------------------------11-|
A||------------------------------------------------------|
E||------------------------------------------------------|
      F#m               B          E               A        (volta riff)
------------------------------------------------------------------------|
--------------------------------------12--------------------------------|
-9-------------------9-9-9----9-11b13----11br-9---9-9--9-9~~------------|
----9-11~~--11--9h11-------11-------------------11----------------------|
------------------------------------------------------------------------|
------------------------------------------------------------------------|

Obs:
     E*
e||----|
B||--9-|
G||--9-|
D||--9-|
A||--7-|
E||----|

No Refrão Uma guitarra faz a base (Riff 1) e outra faz o riff 2.
O Solo final foi feito pelo Duane Allman (e não Clapton) e ele usa slide. 
Eu não consegui pegar esse solo pois as notas alcançadas no slide são inalcançadas nos 
trastes comuns...
Composição de Eric Clapton / Jim Gordon
Colaboração e revisão:
  • Fernando Vinicius
75.310 exibições
    • ½ Tom
    • A
    • Bb
    • B
    • C
    • Db
    • D
    • Eb
    • E
    • F
    • F#
    • G
    • Ab
  • Adicionar à lista

    0 comentários

    Ver todos os comentários

    Conseguiu tocar?

    4 Tocaram 0 Ainda não

    Grave um vídeo tocando Layla e nos envie!

    00:00 / 00:00
    Outros vídeos desta música
    Repetir Qualidade Automático
    Outros vídeos desta música
    00:00 / 00:00
    Automático

    Cifra Club Pro

    Aproveite o Cifra Club com benefícios exclusivos e sem anúncios
    Cifra Club Pro
    Aproveite o Cifra Club com benefícios exclusivos e sem anúncios
    OK