Cifra Club

Layla

Eric Clapton

Cifra: Solos-versao-acustica (violão e guitarra)
tom: Dm
[Tab - Solo Intro]

[Parte 1 De 5]
E|-----------------------------------------------------|
B|-------5--6--5h6p5-----5--6--5-----------------------|
G|----7---------------7-----------7~-------------------|
D|-7---------------------------------------------------|
A|-----------------------------------------------------|
E|-----------------------------------------------------|

Parte 2 de 5
E|-----------------------------------------------------|
B|-5-6-6/8-6-8--8/10--8--10--10/13---------------------|
G|-----------------------------------------------------|
D|-----------------------------------------------------|
A|-----------------------------------------------------|
E|-----------------------------------------------------|

Parte 3 de 5
E|---------10--12--10h12p10------10--------------------|
B|-10--13--------------------13------13--10------10----|
G|-------------------------------------------12------12|
D|-----------------------------------------------------|
A|-----------------------------------------------------|
E|-----------------------------------------------------|

Parte 4 de 5
E|-----------------------------------------------------|
B|-----------------------------------------------------|
G|-10h12p10--9----10--9--7~----------------------------|
D|-----------------------------------------------------|
A|-----------------------------------------------------|
E|-----------------------------------------------------|

Parte 5 de 5
E|-----------------------------------------------------|
B|-------5--6--5---------------------------------------|
G|----7-----------7---5--7-----------------------------|
D|-7-----------------------7\5--3-----3h5--3-----------|
A|---------------------------------5----------5--3--5--|
E|-----------------------------------------------------|

[Solo] Dm  Bb  C  Dm 
       Dm  Bb  C  Dm 
       Dm  Bb  C  Dm 
       Dm  Bb  C  Dm 
       Dm  Bb  C  Dm  
       Dm  Bb  C  Dm 
       Dm  Bb  C  Dm 
       Dm  Bb  C  Dm 

[Tab - Solo]

[Parte 1 De 11]
E|-5--5-----5---5--5-----5-----------------------------|
B|-6--6b----6---6--6b----6b----------------------------|
G|-------7------------7-----7-5------------------------|
D|------------------------------7-6-5\3-5p3---3--------|
A|------------------------------------------5----------|
E|-----------------------------------------------------|

Parte 2 de 11
E|-----------------------------------------------------|
B|-12/13-13-13--12/13-13-13--12/13-13-13--12/13--13-13-|
G|-13/14-14-14--13/14-14-14--13/14-14-14--13/14--14-14-|
D|-----------------------------------------------------|
A|-----------------------------------------------------|
E|-----------------------------------------------------|

Parte 3 de 11
E|-----------------------------------------------------|
B|-12/13-13-13--12/13-13-13-------13-15----------------|
G|-13/14-14-14--13/14-14-14-13/14-------14\12---12-10--|
D|--------------------------------------------x--------|
A|-----------------------------------------------------|
E|-----------------------------------------------------|

Parte 4 de 11
E|----------------10-12--10h12p10----10----------------|
B|----------10-13-----------------13----13--10---------|
G|----10-12--------------------------------------------|
D|-12--------------------------------------------------|
A|-----------------------------------------------------|
E|-----------------------------------------------------|

Parte 5 de 11
E|-----------------------------------------------------|
B|-10--10---10---11---10-------------------------------|
G|-------------------------12--10--9--7h9-7~-----------|
D|-----------------------------------------------------|
A|-----------------------------------------------------|
E|-----------------------------------------------------|

Parte 6 de 11
E|-----------------------------------------------------|
B|----------5--6--5h6p5--------------------------------|
G|-5-----7---------------7--5--------------------------|
D|----7------------------------7--6--5--3--5--3--------|
A|-----------------------------------------------5~/---|
E|-----------------------------------------------------|

Parte 7 de 11
E|-13b--10~-----10-12-10h12-10-------------------------|
B|-----------13----------------13--10----10\-----------|
G|-----------------------------------13----------------|
D|-----------------------------------------------------|
A|-----------------------------------------------------|
E|-----------------------------------------------------|

Parte 8 de 11
E|-10----13b--10~-----15p13--15----15--13b-------------|
B|----10----------13------------15---------------------|
G|-----------------------------------------------------|
D|-----------------------------------------------------|
A|-----------------------------------------------------|
E|-----------------------------------------------------|

Parte 9 de 11
E|--------12-13--13/15--13-15-x--12-13-----------------|
B|----15-------------------------------15-13-----------|
G|-14----------------------------------------14--14\12-|
D|-----------------------------------------------------|
A|-----------------------------------------------------|
E|-----------------------------------------------------|

Parte 10 de 11
E|-----------------------------------------------------|
B|----13----10----------10---10--10--10----------------|
G|-10----12----12p10----10---9---9---8/9---------------|
D|-------------------12--------------------------------|
A|-----------------------------------------------------|
E|-----------------------------------------------------|

Parte 11 de 11
E|-----------------------------------------------------|
B|-----------------------------------------------------|
G|-9b10--7--5------------------------------------------|
D|-------------7--6--5--3b-----------------------------|
A|--------------------------5--3--5--------------------|
E|-----------------------------------------------------|
00:00 / 00:00
Outros vídeos desta música
Repetir
Outros vídeos desta música
Composição de Eric Clapton / Jim Gordon
Colaboração e revisão:
  • Thiago Almeida
798 exibições
    • ½ Tom
    • Am
    • Bbm
    • Bm
    • Cm
    • C#m
    • Dm
    • Ebm
    • Em
    • Fm
    • F#m
    • Gm
    • G#m
  • Adicionar à lista

    0 comentários

    Ver todos os comentários

    Conseguiu tocar?

    0 Tocaram 0 Ainda não

    Grave um vídeo tocando Layla e nos envie!

    00:00 / 00:00
    Capítulos
    • Tocando a Música
    • Apresentação
    • Tocando Solo Introdução
    • Ensinando Solo Introdução - Parte 1 de 5
    • Ensinando Solo Introdução - Parte 2 de 5
    • Ensinando Solo Introdução - Parte 3 de 5
    • Ensinando Solo Introdução - Parte 4 de 5
    • Ensinando Solo Introdução - Parte 5 de 5
    • Tocando Solo Principal
    • Ensinando Solo Introdução - Parte 1 de 11
    • Ensinando Solo Introdução - Parte 2 de 11
    • Ensinando Solo Introdução - Parte 3 de 11
    • Ensinando Solo Introdução - Parte 4 de 11
    • Ensinando Solo Introdução - Parte 5 de 11
    • Ensinando Solo Introdução - Parte 6 de 11
    • Ensinando Solo Introdução - Parte 7 de 11
    • Ensinando Solo Introdução - Parte 8 de 11
    • Ensinando Solo Introdução - Parte 9 de 11
    • Ensinando Solo Introdução - Parte 10 de 11
    • Ensinando Solo Introdução - Parte 11 de 11
    • Encerramento

    Cifra Club Pro

    Aproveite o Cifra Club com benefícios exclusivos e sem anúncios
    Cifra Club Pro
    Aproveite o Cifra Club com benefícios exclusivos e sem anúncios
    OK