Cifra Club

Sunshine of your love

Eric Clapton

Cifra: Principal
exibições 92.790
Tom: G
Primeira parte:

   D     C  D
E|-----------------------------------------
B|-10-10-8--10-----------------------------
G|-11-11-9--11-------x----x----x-----------
D|-12-12-10-12-------x----x----x-----------
A|-------------10/12---11---10-------8~----
E|------------------------------/10----10\-

   D     C  D
E|-----------------------------------------
B|-10-10-8--10-------------------12--------
G|-11-11-9--11-------x----x----x-12-10~----
D|-12-12-10-12-------x----x----x-x------12-
A|-------------10/12---11---10---x---------
E|-----------------------------------------

   G   F G
E|-----------------------------------------
B|-3-3-1-3---------------------------------
G|-4-4-2-4------x---x---x------------------
D|-5-5-3-5------x---x---x------------------
A|----------3/5---4---3------1~------------
E|------------------------/3----3\---------

      D        C    D
It's getting near dawn
      D             C    D
When lights close their tired eyes
      D       C    D
I'll soon be with you my love
    D        C  D
To give you my dawn surprise
      G       F   G
I'll be with you darling soon
      G       F    G
I'll be with you when the stars start falling

( D ) (2x)

Refrão:
A            C         G
  I've been waiting so   long
A         C        G
  To be where I'm going

A         C          G       A
  In the sunshine of   your love

(repetições da primeira parte e refrão)

( D )  (2x)

     D        C  D
I'm with you my love
     D         C      D
The lights shining through on you
          D        C  D
Yes, I'm with you my love
          D      C    D
It's the morning and just we two
       G        F   G
I'll stay with you darling now
       G        F   G
I'll stay with you till my seas are dried up

A            C         G
  I've been waiting so   long
A         C        G
  To be where I'm going
A         C          G       A
  In the sunshine of   your love

Final:
   D     C  D                         F5
E|------------------------------------------
B|-10-10-8--10------------------------------
G|-11-11-9--11-------x----x----x------10----
D|-12-12-10-12-------x----x----x------10----
A|-------------10/12---11---10--------8-----
E|--------------------------------/10-------

   D5/A C9      G/B     Gm/Bb D5/A
E|-----------------------------------------
B|-3-3--------3-------3----------3---------
G|-2--------0-------0-------0----2---x-----
D|-0------0-------0-------0----------x-----
A|-0----3-------2-------1-----0------x-----
E|-----------------------------------------
Acordes para:
    Composição: Eric Clapton / Jack Bruce / Pete BrownColaboração e revisão:
    • Gustavo Cunha

    0 comentários

      mostrar mais comentários

      Conseguiu tocar?

      32tocaram0ainda não

      Grave um vídeo tocando Sunshine of your love e mande pra gente!

      00:00 / 00:00
      outros vídeos desta música
      repetirqualidadeautomática
      Outro vídeos desta música
        00:00 / 00:00
        automática
        Capítulos
        • Início
        • Tocando a música
        • Acordes da Primeira Parte
        • Tocando Primeira Parte
        • Ensinando Primeira Parte - Riff Principal
        • Acordes do Refrão
        • Tocando Refrão
        • Ensinando Ritmo do Refrão
        • Ensinando Final
        • Encerramento
        OK