Cifra Club

Wonderful Tonight

Eric Clapton

Tab de baixo: Principal
Introdução 

Parte 01

G|----------------------------------------------|
D|-5--5-4--------------4-5h7-5--5-4-------------|
A|---------5-3-7-3-5-7--------------5-3-7-5-7---|
E|----------------------------------------------|

G|----------------------------------------------|
D|-4-7------------------------------------------|
A|----------------------------------------------|
E|----------------------------------------------|

Primeira parte

It's late in the evening...

Parte 01

G|----------------------------------------------|
D|-5--5-4----------------4--5--5-4--------------|
A|--------5-3-7-3-5--5-7------------5-3-7-3-5---|
E|----------------------------------------------|

G|----------------------------------------------|
D|--------------------4-5-4------------------4--|
A|-5-0-2-3-7-3-5--5-7-------7-5-2-3--7-3-5-7----|
E|----------------------------------------------|

Introdução 02

Parte 01

G|----------------------------------------------|
D|-5--5-4--------------4-5h7--------------------|
A|---------5-3-7-3-5-7--------------------------|
E|----------------------------------------------|

Segunda parte

We'll go to a party...

Parte 01

G|----------------------------------------------|
D|-5--5-4----------------4--5--5-4--------------|
A|--------5-3-7-3-5--5-7------------5-3-7-3-5---|
E|----------------------------------------------|

G|----------------------------------------------|
D|--------------------4-5-4------------------4--|
A|-5-0-2-3-7-3-5--5-7-------7-5-2-3--7-3-5-7----|
E|----------------------------------------------|

G|----------------------------------------------|
D|-5--5-----------------------------------------|
A|------5-2------0-2----------------------------|
E|----------3--3--------------------------------|

Refrão 01

I feel wonderful...

Parte 01

G|----------------------------------------------|
D|-------4-5-4----------------------------------|
A|-3-3-5-------7-0-2-3-3-5-0-2-3-5h7-5----------|
E|----------------------------------------------|

Introdução 03

Parte 01 ( tocar 2x )

G|----------------------------------------------|
D|-5--5-4--------------4-5h7--------------------|
A|---------5-3-7-3-5-7--------------------------|
E|----------------------------------------------|

Terceira parte

It's time to go home now...

Parte 01

G|----------------------------------------------|
D|-5--5-4----------------4--5--5-4--------------|
A|--------5-3-7-3-5--5-7------------5-3-7-3-5---|
E|----------------------------------------------|

G|----------------------------------------------|
D|--------------------4-5-4------------------4--|
A|-5-0-2-3-7-3-5--5-7-------7-5-2-3--7-3-5-7----|
E|----------------------------------------------|

Parte 02

G|----------------------------------------------|
D|-5-4-------------4----------------------------|
A|-----7-5-3-7-5-7------------------------------|
E|----------------------------------------------|

Introdução 4 ( final )

Parte 01

G|----------------------------------------------|
D|-5--5-4--------------4-5h7-5--5-4-------------|
A|---------5-3-7-3-5-7--------------5-3-5/7-----|
E|----------------------------------------------|

G|----------------------------------------------|
D|-----4-7-5------------------------------------|
A|-5-7------------------------------------------|
E|----------------------------------------------|
00:00 / 00:00
Outros vídeos desta música
Repetir
Outros vídeos desta música
Composição de Eric Clapton
Colaboração e revisão:
  • Ricardo Reis
14.813 exibições

0 comentários

Ver todos os comentários

Entre para oCifra Club PRO

Tenha acesso a benefícios exclusivos no App e no Site

  • Chega de anúncios

  • Prioridade de compra em lançamentos

  • Mais recursos no app do Afinador

  • Atendimento Prioritário

  • Descontos nos produtos Cifra Club

  • Ajude a produzir mais conteúdo

00:00 / 00:00
Capítulos
  • Tocando a música
  • Dicas Iniciais / Equipamentos
  • Introdução
  • Primeira Parte
  • Introdução 2
  • Segunda Parte
  • Refrão
  • Introdução 3
  • Terceira Parte - Parte 1 de 2
  • Terceira Parte - Parte 2 de 2
  • Introdução 4
  • Encerramento
  • Ficha Técnica

Cifra Club Pro

Aproveite o Cifra Club com benefícios exclusivos e sem anúncios
Cifra Club Pro
Aproveite o Cifra Club com benefícios exclusivos e sem anúncios
OK