Cifra Club

Aprenda

Apanhei-te, Cavaquinho

Ernesto Nazareth

Cifra: Principal (violão e guitarra)
tom: E
|------3-2-0-||--0-------2-0-----||---------0-------||-----------------|
|------------||o---3-2-3-----3-1-||-1-0---0---3-1-0-||-0-------3-1-0---|
|------------||------------------||-----3-----------||---2-1-2-------2-|
|------------||--0---------------||-----------------||-----------------|
|------------||o-----------------||-----------------||-----------------|
|------------||------------------||-3---------------||-2---------------|
                 H                  H                  H

  S S S S S S S S    S S S S S S S S    S S S S S S S S    S S S S S S S S
|-----------------||-----------------||-----------------||---------2-0-----|
|---------1-0-----||-----------------||-----------------||-0-1-2-3-----3-1-|
|-2-0---0-----2-0-||---------2-0-----||-------------0-2-||-----------------|
|-----4-----------||-4-2-1-2-----4-2-||-2-0---0-2-4-----||-0---------------|
|-----------------||-0---------------||-----4-----------||-----------------|
|-0---------------||-----------------||-3---------------||-----------------|
  H                  H                  H                  H

  S S S S +S  S S S    S S S S S S S S    S S S S S S S S    S S S S S S S S
|-----0-------3-2-0-||-0-------2-0-----||---------0-------||-----------------|
|---0---3-(3)-------||---3-2-3-----3-1-||-1-0---0---3-1-0-||-0-------3-1-0---|
|-3--------0--------||-----------------||-----3-----------||---2-1-2-------2-|
|-------------------||-0---------------||-----------------||-----------------|
|-------------------||-----------------||-----------------||-----------------|
|-3-----------------||-----------------||-3---------------||-2---------------|
  Q        Q           H                  H                  H

 To Coda
  S S S S S S S S    S S S S S S S S    S S S S S S S S    S S S S S S S S
|-----------------||-----------------||-----------------||-----------0-1-2-|
|---------1-0-----||-----------------||-----------------||-0-1-2-3-4-------|
|-2-0---0-----2-0-||---------2-0-----||-------------0-2-||-----------------|
|-----4-----------||-4-2-1-2-----4-2-||-2-0---0-2-4-----||-0---------------|
|-----------------||-0---------------||-----4-----------||-----------------|
|-0---------------||-----------------||-3---------------||-----------------|
  H                  H                  H                  H

  1.              2.
  E E S S S S     E E S S S S    S S S S S S S S
|-3-----3-2-0--||-3-----------||-----0-2-3---3---||
|-0-----------o||-0-----0-1-0-||---0-------0---0-||
|-0------------||-0-----------||-3---------------||
|---0----------||---0---------||-----------------||
|-------------o||-------------||-----------------||
|-----3--------||-----3-------||-0---------------||
                                 H

  S S S S S S S S    S S S S S S S S
|-3-----2-------2-||-2-----2-------2--|
|-----2-------2---||-----4-------4----|
|---3-------3-----||---2-------2------|
|-----------------||------------------|
|-----------------||-2-------2--------|
|-2-------2-------||------------------|
  Q       Q          Q       Q

  S S S S S S S S    S S S S S S S S
|-2-----0---------||-----0-2-3---3---||
|-----0-----0-1-0-||---0-------0---0-||
|---0-----2-------||-3---------------||
|-----------------||-----------------||
|-----------------||-----------------||
|-0---------------||-0---------------||
  Q       Q          H

  S S S S S S S +S     S  S   S  S S S S S
|-3---2---0---------||-------------0-------|
|---0---0-----3-(x)-||-3-(x)-(3)-2-----2---|
|-------------4-(x)-||-4-(x)--3------------|
|-----------4----4--||----4----------4---4-|
|-------------------||---------------------|
|-0-----------------||---------------------|
  Q       S S S  S

  S S S S +S  S S S    S S S S S S S S    S S S S S S S S    S S S S S S S S
|-------------------||-----0-2-3---3---||-3-----2-------2-||-2-----2-------2-|
|-1-----0-(0)-0-1-0-||---0-------0---0-||-----2-------2---||-----4-------4---|
|-----2-------------||-3---------------||---3-------3-----||---2-------2-----|
|---1---------------||-----------------||-----------------||-----------------|
|----------2--------||-2---------------||-----------------||-2-------2-------|
|-2-----------------||---------0-------||-2-------2-------||-----------------|
  Q        Q           Q       Q          Q       Q          Q       Q

  S S S S +S  S S S    S S S S S S S S
|-1-----0-(0)-0---0-||-1---0-----------||
|-----0---------4---||---------3---1---||
|---1---------------||---2---2---2---2-||
|-------------------||-----------------||
|-------------------||-0---------------||
|-0--------4--------||-----------------||
  Q        Q           H

  S S S S +S  S S S    S S S S S S S S    H
|-------------------||-------------3-2-||-0------|
|-1-----0-(0)-0---0-||-1-0---0-5-4-----||-0------|
|-----0---------3---||-----3-----------||-0------|
|---2---------------||-1---------------||-2------|
|-2-----------------||---------2-------||----2---|
|----------0--------||-----------------||--------|
  Q        Q           Q       Q          Q  Q

      D.S.
   E E E E     S S S S S S S S    E. S +E  E
|---3-2-0-||--5-3-------------||----0-(0)---||
|---------||o-----5-----------||----------3-||
|---------||--------5-2-0-----||-2----------||
|---------||--------------2---||------------||
|---------||o-3-------------3-||------------||
|-0-------||------------------||-2----------||
  Q   Q       Q       E   S S    H

  S E S S E S    E. S +E  E    S S S S S S S S
|-------------||-0--0-(0)-0-||---0---0-1-0---0--|
|-------0-1-3-||-1--1-(1)-1-||-----4-------4----|
|---0-2-------||-0--0-(0)-0-||------------------|
|-------------||------------||------------------|
|-------------||-3----------||------------------|
|-3-----------||------------||-0----------------|
  H              H             H

  S S S S S S S S    S S S S S S S S
|---0---0---0---0-||---------0-------||
|-1---0-------0---||---3-2-3---3-2-3-||
|---------2-------||-----------------||
|-----------------||-----------------||
|-0---------------||-----------------||
|-----------------||-2---------------||
  H                  H

   S S S S S S S S    S S S S S S S S    E. S +E  E
|-----------3-2-3-||-5-3-------------||----0-(0)----|
|-5-3-------------||-----5-----------||----------3--|
|-----4-----------||-------5-2-0-----||-2-----------|
|-------5-0-------||-------------2---||-------------|
|-----------------||-3-------------3-||-------------|
|-3---------------||-----------------||-2-----------|
  Q       Q          Q       E   S S    H

  S E S S E S    E. S +E  E      S S S S S S S S
|-------------||-0--0-(0)-0---||---0---0-1-0---0-||
|-------0-1-3-||-0--0-(0)-0---||-----4-------4---||
|---0-2-------||-1--1-(1)-1---||-----------------||
|-------------||--------------||-----------------||
|-------------||--------------||-----------------||
|-3-----------||-0------------||-0---------------||
  H              Q.       S S    H

  E. S +E  E    S S S S S S S S    Q  S S S S
|-5----------||---3-1-----------||------3-2-3--|
|----3-(3)---||-------3-0-----0-||-1-----------|
|----------5-||-0---------0-2---||-0-----------|
|-4----------||-----------------||-2-----------|
|------------||-----------------||-3-----------|
|------------||-----------------||----3--------|
  H             Q       S S E

  S S S S S S S S    E. S +E  E    S E S S S S S
|-5-3-0-----------||----1-(1)-0-||---------------||
|-------1---------||-0----------||-------0-1-3-4-||
|---------2-0-----||-1----------||---0-2---------||
|-------------2---||------------||---------------||
|---------------3-||------------||---------------||
|-----------------||-1----------||-3-------------||
                     Q     Q       H

  E. S +E    E      S S S S S S S S
|-0--0-(0)-------||---0---0-1-0---0---|
|-1--1-(1)-------||-----4-------4-----|
|-0--0-(0)-------||-------------------|
|----------------||-------------------|
|-3----(3)-3-2-0-||-------------------|
|----------------||-4-------0---------|
  Q    +S  S S S    Q       Q

  S S S S S S S S    S S S S S S S S
|---0---0---0---0-||---------0-------||
|-1---0-----------||---3-2-3---3-2-3-||
|---------2---0---||-----------------||
|-----------------||-0-------4-------||
|-0-------3-------||-----------------||
|-----------------||-----------------||
  Q       Q          Q       Q

   S E S +S  S S S    S S S S S S S S    E. S +E  E
|-0---3-(3)-3-2-3-||-5-3-------------||----1-(1)-0-|
|---3-------------||-----5-----------||-0----------|
|-0---------------||-------5-2-0-----||-1----------|
|-----------------||-------------2---||------------|
|-----------------||-3-------------3-||------------|
|--------3--------||-----------------||-1----------|
  Q      E    E      Q       E   S S    Q     Q

  S E S S S S S    E. S +E    S S    S S S S S S S S
|---------------||-0--0-(0)-------||---0---0-1-0---0-||
|-------0-1-3-4-||-0--0-(0)-------||-----4-------4---||
|---0-2---------||-1--1-(1)-------||-----------------||
|---------------||----------3-2-0-||-----------------||
|---------------||----------------||-4-------0-------||
|-3-------------||-0----(0)-------||-----------------||
  H                Q    +S  S S S    Q       Q

  S S S S S S S S    S S S S S S S S
|-5-----5-5-------||---3-1-----------|
|-----3-----3-----||-------3-0-----0-|
|---5---------5---||-0---------0-2---|
|-4-------4-----4-||-----------------|
|-----------------||-----------------|
|-----------------||-----------------|
  Q       E   S S    Q       S S E

  1.                  2.
                      D.S.S. al Coda
                                    &
  Q       S S S S     Q   +S  S S S    E E Q      H
|-----------3-2-3--||---------3-2-0-||-3------||-^3----*|
|-1---------------o||-1---(1)-------||-0------||-^0----*|
|-0----------------||-0---(0)-------||-0------||-^0----*|
|-2----------------||-2---(2)-------||---0----||-------*|
|-3-3-2-0---------o||-3----3--------||--------||-------*|
|---------3--------||---3-----------||-----3--||-^3----*|
  S S S S Q           E E  Q
Compositor não encontrado.
Colaboração e revisão:
  • Luiz Carlos
6.819 exibições
    • ½ Tom
    • A
    • Bb
    • B
    • C
    • Db
    • D
    • Eb
    • E
    • F
    • F#
    • G
    • Ab
  • Adicionar à lista

    0 comentários

    Ver todos os comentários

    Conseguiu tocar?

    1 Tocaram 3 Ainda não

    Grave um vídeo tocando Apanhei-te, Cavaquinho e nos envie!

    00:00 / 00:00
    Outros vídeos desta música
    Repetir Qualidade Automático
    Outros vídeos desta música
    00:00 / 00:00
    Automático

    Cifra Club Pro

    Aproveite o Cifra Club com benefícios exclusivos e sem anúncios
    Cifra Club Pro
    Aproveite o Cifra Club com benefícios exclusivos e sem anúncios
    OK