Cifra Club

As Youre Falling Down

Escape The Fate

Cifra: Principal (violão e guitarra)
tom: B
-Falling Down
Tuning-Drop D    
DADGBE

Tabbed by 2Lazy2GetBetter

This is just Guitar 1 for now, Guitar 2 coming later

Intro
E|------------------------------------------------------------------------|
B|------------------------------------------------------------------------|
G|--------------------------------------------------------------------6~--|
D|--------------------------------------------------------------------x---|
A|-3-3333-3-3333-4-1-3-3333-3-3333-4~-3-3333-3-3333-4-1-3-3333-3-3333-4~--|
D|-3-3333-3-3333-4-1-3-3333-3-3333-4~-3-3333-3-3333-4-1-3-3333-3-3333-----|

Verse
E|----------------------------------------|
B|----------------------------------------|
G|----------------------------------------|
D|-5555------------8888-------------------| (2x)
A|-3333----6666----6666----8-6-5-3-5-3----|
D|---------6666------------8-6-5-3-5-3----|

E|------------------------------------------------------------------------------|
B|------------------------------------------------------------------------------|
G|------------------------------------------------------------------------------|
D|-5-------------------------------------8--------------------------------------| (2x)
A|-3-3333333333333333-6------------------6-66666666666666666-8--------9---------|
D|--------------------6-6666666666666666---------------------8-888888-9-999999--|
     ................   ................   .................   ......   ......

E|--------------|
B|--------------|
G|--------------|
D|--------------|
A|-8-6-5-3-5-3--|
D|-8-6-5-3-5-3--|

Chorus
E|---------------------------------|
B|---------------------------------|
G|---------------------------------|
D|-1-(10x)-5-(10x)-5-(10x)-6-(10x)-| (2x)
A|-1-------5-------3-------6-------|
D|-1-------5---------------6-------|

Verse
E|----------------------------------------|
B|----------------------------------------|
G|----------------------------------------|
D|-5555------------8888-------------------| (2x)
A|-3333----6666----6666----8-6-5-3-5-3----|
D|---------6666------------8-6-5-3-5-3----|

E|------------------------------------------------------------------------------|
B|------------------------------------------------------------------------------|
G|------------------------------------------------------------------------------|
D|-5-------------------------------------8--------------------------------------| (2x)
A|-3-3333333333333333-6------------------6-66666666666666666-8--------9---------|
D|--------------------6-6666666666666666---------------------8-888888-9-999999--|
     ................   ................   .................   ......   ......

Chorus
E|---------------------------------|
B|---------------------------------|
G|---------------------------------|
D|-1-(10x)-5-(10x)-5-(10x)-6-(10x)-| (2x)
A|-1-------5-------3-------6-------|
D|-1-------5---------------6-------|

Bridge
E|--------------------------------|-------------------------------------------------|
B|-8p0-8h9-0h6h8-0h4h6-2h3p2p0----|-13-------11-------13------11--------13---13-----|
G|--------------------------------|----12-12----12-12----12-12----12-12----12---12--| All 12's Palm Muted
D|--(Play this whole thing 8x)----|-------------------------------------------------|
A|--------------------------------|-----------(Play this whole thing 4x)------------|
D|--------------------------------|-------------------------------------------------|
                                        . .      . .      . .      . .     .    .

Verse
E|----------------------------------------|
B|----------------------------------------|
G|----------------------------------------|
D|-5555------------8888-------------------|(2x)
A|-3333----6666----6666----8-6-5-3-5-3----|
D|---------6666------------8-6-5-3-5-3----|

Chorus
E|------------------------------------|
B|------------------------------------|
G|-12-(10x)-10-(10x)-8-(10x)-10-(10x)-|
D|-x--------x--------x-------x--------| (4x)
A|-10-------8--------6-------8--------|
D|------------------------------------|

Outro
E|--------------------------------|------|
B|-8p0-8h9-0h6h8-0h4h6-2h3p2p0----|------|
G|--------------------------------|------|
D|--(Play this whole thing 4x)----|-5~\--|
A|--------------------------------|-3~\--|
D|--------------------------------|------|
Composição de Escape the Fate
3.425 exibições
    • ½ Tom
    • A
    • Bb
    • B
    • C
    • Db
    • D
    • Eb
    • E
    • F
    • F#
    • G
    • Ab
  • Adicionar à lista

    0 comentários

    Ver todos os comentários

    Conseguiu tocar?

    1 Tocaram 0 Ainda não

    Grave um vídeo tocando As Youre Falling Down e nos envie!

    00:00 / 00:00
    Outros vídeos desta música
    Repetir Qualidade Automático
    Outros vídeos desta música
    00:00 / 00:00
    Automático

    Cifra Club Pro

    Aproveite o Cifra Club com benefícios exclusivos e sem anúncios
    Cifra Club Pro
    Aproveite o Cifra Club com benefícios exclusivos e sem anúncios
    OK