Cifra Club

Dragging Dead Bodies In Blue Bags Up Really Long Hills

Escape The Fate

Cifra: Principal (violão e guitarra)
tom: Bb
            Dragging Dead Bodies in Blue Bags Up Really Long Hills

Tabbed by:Jared
Email:*

Tuning: E A D G B e

Not perfect-some strumming patterns are wrong, but the song is pretty repetitive, so you 
be able to figure it out.

e-mail if you have any questions.

[intro]
e|-------------------------------------------------------------|
B|-------------------------------------------------------------|
G|-8-8-7-7-10-10-8-7-8------13-13-12-12-15-15-12-10-12---------|
D|-8-8-7-7-10-10-8-7-8------13-13-12-12-15-15-12-10-12---------|
A|-6-6-5-5-8--8--6-5-6------11-11-10-10-13-13-10-8--10---------|
E|-------------------------------------------------------------|

e|-------------------------------------------------------------|
B|-------------------------------------------------------------|
G|-8-8-7-7-10-10-13-13-12-8----8-8-7-7-10-10-8-8-7-7-----------|
D|-8-8-7-7-10-10-13-13-12-8----8-8-7-7-10-10-8-8-7-7-----------|
A|-6-6-5-5-8--8--11-11-10-6----6-6-5-5-8--8--6-6-5-5-----------|
E|-------------------------------------------------------------|

e|-------------------------------------------------------------|
B|-------------------------------------------------------------|
G|-8-8-7-7-10-10-8-7-8------13-13-12-12-15-15-12-10-12---------|
D|-8-8-7-7-10-10-8-7-8------13-13-12-12-15-15-12-10-12---------|
A|-6-6-5-5-8--8--6-5-6------11-11-10-10-13-13-10-8--10---------|
E|-------------------------------------------------------------|

e|-------------------------------------------------------------|
B|-------------------------------------------------------------|
G|-8-8-7-7-10-10-13-13-12-12-8-7----8-8-7-7-3-5----------------|
D|-8-8-7-7-10-10-13-13-12-12-8-7----8-8-7-7-3-5----------------|
A|-6-6-5-5-8--8--11-11-10-10-6-5----6-6-5-5-1-3----------------|
E|-------------------------------------------------------------|

[solo]
e|-------------------------------------------------------------|
B|-------------------------------------------------------------|
G|-------------------------------------------------------------|
D|-----5--------------------------------5----------------------|
A|---3---6-3-5-----------5---6-5-3----3---6-3-5----------5---3-|
E|-------------6-3-6-3-6---6--------------------6-3-6-3-6--6---|

e|-------------------------------------------------------------|
B|-------------------------------------------------------------|
G|-6--------8--------------------------------------------------|
D|-6--[x16]-8--[x16]----5--------------------------------------|[x2]
A|-4--------6---------3---6-3-5-----------5---6-5-3-[x2]-------|
E|------------------------------6-3-6-3-6---6------------------|

e|-------------------------------------------------------------|
B|-------------------------------------------------------------|
G|-6--------8---------------8-8-----------------8-8-10-10------|
D|-6--[x16]-8--[x16]--10-10-8-8-6-6-666-8-8-888-8-8-10-10------|
A|-4--------6---------10-10-6-6-6-6-666-8-8-888-6-6-8--8-------|
E|--------------------8--8------4-4-444-6-6-666----------------|

e|-------------------------------------------------------------|
B|-------------------------------------------------------------|
G|-------8-8---------------------------------------------------|
D|-10-10-8-8-6-6-666-888-888-888-888---------------------------|
A|-10-10-6-6-6-6-666-888-888-888-888---------------------------|
E|-8--8------4-4-444-666-666-666-666---------------------------|

e|-------------------------------------------------------------|
B|-------------------------------------------------------------|
G|-------8-8-----------------8-8-10-10-------------------------|
D|-10-10-8-8-6-6-666-8-8-888-8-8-10-10-------------------------|
A|-10-10-6-6-6-6-666-8-8-888-6-6-8--8--------------------------|
E|-8--8------4-4-444-6-6-666-----------------------------------|

e|-------------------------------------------------------------|
B|-------------------------------------------------------------|
G|-------8-8---------------------------------------------------|
D|-10-10-8-8-6-6-666-888-888-888-888--10-----------------------|
A|-10-10-6-6-6-6-666-888-888-888-888--10-----------------------|
E|-8--8------4-4-444-666-666-666-666--8------------------------|

e|-------------------------------------------------------------|
B|-------------------------------------------------------------|
G|-------------------------------------------------------------|
D|-------------------------------------------------------------|
A|-6---6---6---5---5----[x4]-----------------------------------|
E|---8---8---8---6---6-----------------------------------------|

e|-------------------------------------------------------------|
B|-------------------------------------------------------------|
G|-6--------8--------------------------------------------------|
D|-6--[x16]-8--[x16]----5--------------------------------------|[x2]
A|-4--------6---------3---6-3-5-----------5---6-5-3-[x2]-------|
E|------------------------------6-3-6-3-6---6------------------|

e|-------------------------------------------------------------|
B|-------------------------------------------------------------|
G|-6--------8---------------8-8-----------------8-8-10-10------|
D|-6--[x16]-8--[x16]--10-10-8-8-6-6-666-8-8-888-8-8-10-10------|
A|-4--------6---------10-10-6-6-6-6-666-8-8-888-6-6-8--8-------|
E|--------------------8--8------4-4-444-6-6-666----------------|

e|-------------------------------------------------------------|
B|-------------------------------------------------------------|
G|-------8-8---------------------------------------------------|
D|-10-10-8-8-6-6-666-888-888-888-888---------------------------|
A|-10-10-6-6-6-6-666-888-888-888-888---------------------------|
E|-8--8------4-4-444-666-666-666-666---------------------------|

e|-------------------------------------------------------------|
B|-------------------------------------------------------------|
G|-------8-8-----------------8-8-10-10-------------------------|
D|-10-10-8-8-6-6-666-8-8-888-8-8-10-10-------------------------|
A|-10-10-6-6-6-6-666-8-8-888-6-6-8--8--------------------------|
E|-8--8------4-4-444-6-6-666-----------------------------------|

e|-------------------------------------------------------------|
B|-------------------------------------------------------------|
G|-------8-8---------------------------------------------------|
D|-10-10-8-8-6-6-666-8888888888888888--------------------------|
A|-10-10-6-6-6-6-666-8888888888888888--------------------------|
E|-8--8------4-4-444-6666666666666666--------------------------|

e|-------------------------------------------------------------|
B|-------------------------------------------------------------|
G|---------8--------------8--------------7---------------------|
D|-10------8-[x3]-10------8-[x3]-10------7-[x3]-10-------------|
A|-10-[x2]-6------10-[x2]-6------10-[x2]-5------10-[x2]--------|
E|-8--------------8--------------8--------------8--------------|

e|-------------------------------------------------------------|
B|-------------------------------------------------------------|
G|-7-------------8-------------8-------------7-----------------|
D|-7-[x3]-6------8-[x3]-6------8-[x2]-5------7-[x2]-5-5-5-5----|
A|-5------6-[x2]-6------6-[x3]-6------5-[x3]-5------5-5-5-5----|
E|--------4-------------4-------------3-------------3-3-3-3----|

e|-------------------------------------------------------------|
B|-------------------------------------------------------------|
G|---------8--------------8--------------7---------------------|
D|-10------8-[x3]-10------8-[x3]-10------7-[x3]-10-------------|
A|-10-[x2]-6------10-[x2]-6------10-[x2]-5------10-[x2]--------|
E|-8--------------8--------------8--------------8--------------|

e|-------------------------------------------------------------|
B|-------------------------------------------------------------|
G|-7-------------8-------------8-------------7-----------------|
D|-7-[x3]-6------8-[x3]-6------8-[x2]-5------7-[x2]-------8----|
A|-5------6-[x2]-6------6-[x3]-6------5-[x3]-5------------8----|
E|--------4-------------4-------------3-------------------6----|

e|-------------------------------------------------------------|
B|-------------------------------------------------------------|
G|---------8--------------8--------------7---------------------|
D|-10------8-[x3]-10------8-[x3]-10------7-[x3]-10-------------|
A|-10-[x2]-6------10-[x2]-6------10-[x2]-5------10-[x2]--------|
E|-8--------------8--------------8--------------8--------------|

e|-------------------------------------------------------------|
B|-------------------------------------------------------------|
G|-7-------------8-------------8-------------7-----------------|
D|-7-[x3]-6------8-[x3]-6------8-[x2]-5------7-[x2]------------|
A|-5------6-[x2]-6------6-[x3]-6------5-[x3]-5-----------------|
E|--------4-------------4-------------3------------------------|

[second solo.. i haven't figured out yet.. i'll get it later.]


e|-------------------------------------------------------------|
B|-------------------------------------------------------------|
G|-------8-8-----------------8-8-10-10-------------------------|
D|-10-10-8-8-6-6-666-8-8-888-8-8-10-10-------------------------|
A|-10-10-6-6-6-6-666-8-8-888-6-6-8--8--------------------------|
E|-8--8------4-4-444-6-6-666-----------------------------------|

e|-------------------------------------------------------------|
B|-------------------------------------------------------------|
G|-------8-8---------------------------------------------------|
D|-10-10-8-8-6-6-666-888-888-888-888---------------------------|
A|-10-10-6-6-6-6-666-888-888-888-888---------------------------|
E|-8--8------4-4-444-666-666-666-666---------------------------|

e|-------------------------------------------------------------|
B|-------------------------------------------------------------|
G|-------8-8-----------------8-8-10-10-------------------------|
D|-10-10-8-8-6-6-666-8-8-888-8-8-10-10-------------------------|
A|-10-10-6-6-6-6-666-8-8-888-6-6-8--8--------------------------|
E|-8--8------4-4-444-6-6-666-----------------------------------|

e|-------------------------------------------------------------|
B|-------------------------------------------------------------|
G|-------8-8---------------------------------------------------|
D|-10-10-8-8-6-6-666-888-888-888-888--8-7-3--8-7-3--8-7-3------|
A|-10-10-6-6-6-6-666-888-888-888-888--8-7-3--8-7-3--8-7-3------|
E|-8--8------4-4-444-666-666-666-666--6-5-1--6-5-1--6-5-1------|

e|-------------------------------------------------------------|
B|-------------------------------------------------------------|
G|-------------------------------------------------------------|
D|-7-7-5-5----8-7-3-8-7-3-3-----5------7------8--------10------|
A|-7-7-5-5----8-7-3-8-7-3-3-----5-[x8]-7-[x8]-8-[x8]---10-[x8]-|
E|-5-5-3-3----6-5-1-6-5-1-1-----3------5------6--------8-------|

e|-------------------------------------------------------------|
B|-------------------------------------------------------------|
G|-------------------------------------------------------------|
D|-----5-------------------------------------------------------|[x3]
A|---3---6-3-5-----------5---6-5-3--5--------------------------|
E|-------------6-3-6-3-6---6-----------------------------------|

e|-------------------------------------------------------------|
B|-------------------------------------------------------------|
G|-------------------------------------------------------------|
D|-----5-----------------------------5-5-55--------------------|
A|---3---6-3-5-----------5---6-5-3---5-5-55--------------------|
E|-------------6-3-6-3-6---6---------3-3-33--------------------|
Composição de Escape the Fate
1.042 exibições
    • ½ Tom
    • A
    • Bb
    • B
    • C
    • Db
    • D
    • Eb
    • E
    • F
    • F#
    • G
    • Ab
  • Adicionar à lista

    0 comentários

    Ver todos os comentários

    Conseguiu tocar?

    1 Tocaram 0 Ainda não

    Grave um vídeo tocando Dragging Dead Bodies In Blue Bags Up Really Long Hills e nos envie!

    00:00 / 00:00
    Outros vídeos desta música
    Repetir Qualidade Automático
    Outros vídeos desta música
    00:00 / 00:00
    Automático

    Cifra Club Pro

    Aproveite o Cifra Club com benefícios exclusivos e sem anúncios
    Cifra Club Pro
    Aproveite o Cifra Club com benefícios exclusivos e sem anúncios
    OK