Cifra Club

Guillotine Intro

Escape The Fate

Cifra: Principal (violão e guitarra)
tom: D
This is all of the intro and gets a little bit into the chorus but, NOT the whole song, 
thought I'd be nice and submit the Intro to help people get started on tabing out this 
which is a really sweet song but no one seems to care to tab it


Tuning:
Drop C

|------------------------------------------------------------------|
|------------------------------------------------------------------|
|------------------------------------------------------------------|
|---4~~~-----4~~~-------0~~~---------0-0-0-------------------------|
|---4~~~-----4~~~-------0~~~---------0-0-0-------------------------|
|---4~~~-----4~~~-------0~~~---------0-0-0-------------------------|

|------------------------------------------------------------------|
|------------------------------------------------------------------|
|------------------------------------------------------------------|
|------------------------------------------------------------------|
|------------------4-----5-----7---5---4---------5b4-7-7/9---------|
|-4h7-4h7--4-4-4-4---4-4---4-4---4---4---7-7-7-7-------------------|
  . . . .  . . . .   . .   . .   .   .   . . . .

---------|
---------|
---------|
---------| X3
---------|
-7b6b4h7-|
 . . . .

|------------------------------------------------------------------|
|------------------------------------------------------------------|
|------------------------------------------------------------------|
|----4-4---------2-2----------2-2--2-2---4-4------------------7-7--|
|----4-4---------2-2----------2-2--2-2---4-4------------------7-7--|
|----4-4---------2-2----------2-2--2-2---4-4------------------7-7--|

----------|
----------|
----------|
-2-2--0---|
-2-2--0---|
-2-2--0---|

|-----------------------------------|
|-----------------------------------|
|-----------------------------------|
|--7b0-6b0-----9h11b11-7b0-6b0------| This is the first measure of the
|----------9b0-----------------9b0--|                tapping
|-----------------------------------|

|-----------------------------------|
|-----------------------------------| This is the 3rd
|-----------------------------------|
|-7b0-6b0---------6b0-9b0-6b0-------|
|---------9b0-7b0-------------------|
|-----------------------------------|

Not sure about these but thats the first part of Guillotine!
Compositor não encontrado.
2.297 exibições
    • ½ Tom
    • A
    • Bb
    • B
    • C
    • Db
    • D
    • Eb
    • E
    • F
    • F#
    • G
    • Ab
  • Adicionar à lista

    0 comentários

    Ver todos os comentários

    Conseguiu tocar?

    0 Tocaram 0 Ainda não

    Grave um vídeo tocando Guillotine Intro e nos envie!

    00:00 / 00:00
    Outros vídeos desta música
    Repetir Qualidade Automático
    Outros vídeos desta música
    00:00 / 00:00
    Automático

    Cifra Club Pro

    Aproveite o Cifra Club com benefícios exclusivos e sem anúncios
    Cifra Club Pro
    Aproveite o Cifra Club com benefícios exclusivos e sem anúncios
    OK