Cifra Club

Aprenda

My Apocalypse

Escape The Fate

Cifra: Principal (violão e guitarra)
Tom: C
Intro
|-------------------------------------------------------------|
|--------8--8----------8--------------------------------------|
|--------9--9----------9--------------9-----9------------9----|
|--------7--7----------7--------------10----10-----------10---|
|--0-----0--0-----0----0---------8----8-----8------8-----8----|
|-------------------------------------------------------------|

|----------------------------------------------------------------|
|--------8--8--8--------8-10-8--------------------------------8--|
|--------9--9--9-------------------9---9---9---9---9---9---9--9--|
|--------7--7--7-------------------10--10--10--10--10--10--10-7--|
|--0-----0--0--0---0-0-------------8---8---8---8---8---8---8--0--|
|----------------------------------------------------------------|


Guitar 1
|-------------------------------------------------------------------|
|-------------------------------------------------------------------|
|-2-2-2-2-2-2-2-2-2-2-2-2-2-2-2-2-------------------5-5-5-5-5-5-5-5-|
|-2-2-2-2-2-2-2-2-2-2-2-2-2-2-2-2--3-3-3-3-3-3-3-3--5-5-5-5-5-5-5-5-|
|-0-0-0-0-0-0-0-0-0-0-0-0-0-0-0-0--3-3-3-3-3-3-3-3--3-3-3-3-3-3-3-3-|
|----------------------------------3-3-3-3-3-3-3-3------------------|

Guitar 2
|-15-0------15-0------15-0------15-0---------------------15--0------------------------------|
|------13-0------13-0------13-0------13-0--10--0--13--0---------13-0--13-15-13-12-12-13-12--|
|-------------------------------------------------------------------------------------------|
|-------------------------------------------------------------------------------------------|
|-------------------------------------------------------------------------------------------|
|-------------------------------------------------------------------------------------------|
Composição de Escape the Fate
21.213 exibições
    • ½ Tom
    • A
    • Bb
    • B
    • C
    • Db
    • D
    • Eb
    • E
    • F
    • F#
    • G
    • Ab
  • Adicionar à lista

    0 comentários

    Mostrar mais comentários
    00:00 / 00:00
    outros vídeos desta música
    repetir qualidade Automático
    Outros vídeos desta música
    00:00 / 00:00
    Automático
    OK