Cifra Club

Ransom Intro

Escape The Fate

Cifra: Principal (violão e guitarra)
tom: Bb
e|-------------------|
B|----3--------------|
G|-3-----------------|  4 times
D|--5---5------------|
A|-------------------|
E|-------------------|

e|-----1-------------|
B|-------------------|
G|-3-----------------|  4 times
D|---3----3----------|
A|-------------------|
E|-------------------|

e|-----1-------------|
B|-------------------|
G|-3-----------------|  4 times
D|---1----1----------|
A|-------------------|
E|-------------------|

e|-----1-------------|
B|-------------------|
G|-3-----------------|  2 times
D|---0----0----------|
A|-------------------|
E|-------------------|

e|-----1-------------|
B|-------------------|
G|-3-----------------|  2 times
D|---1----1----------|
A|-------------------|
E|-------------------|

yeah well thats the intro.
*
--stevie

Compositor não encontrado.
1.105 exibições
    • ½ Tom
    • A
    • Bb
    • B
    • C
    • Db
    • D
    • Eb
    • E
    • F
    • F#
    • G
    • Ab
  • Adicionar à lista

    0 comentários

    Ver todos os comentários

    Conseguiu tocar?

    0 Tocaram 0 Ainda não

    Grave um vídeo tocando Ransom Intro e nos envie!

    00:00 / 00:00
    Outros vídeos desta música
    Repetir Qualidade Automático
    Outros vídeos desta música
    00:00 / 00:00
    Automático

    Cifra Club Pro

    Aproveite o Cifra Club com benefícios exclusivos e sem anúncios
    Cifra Club Pro
    Aproveite o Cifra Club com benefícios exclusivos e sem anúncios
    OK