Cifra Club

Ransom

Escape The Fate

Tab de baixo: Versão 2
Tuning: standard
(after guitar intro)
Intro
G|------------------3-2232--------------------|
D|------5*----3-3-5--------1--1--3-1-0-0-1-3--|
A|--------------------------------------------|
E|--------------------------------------------|

Verse

G|---------------------------------------------------------------------------------------------------------------|
D|-5-5-5-5-5-5-5-5-5-5-5-5-5-5-3-3-3-3-3-3-3-3-3-3-3-3-3-1-1-1-1-1-1-1-1-1-1-1-1-1-1-0-0-0-0-0-0-0-0-1111--3333--|
A|---------------------------------------------------------------------------------------------------------------|
E|---------------------------------------------------------------------------------------------------------------|

Pre-Chorus

G|-------------------------------------------------------------------------------------------------------------------|
D|-5-5-5-5-5-5-5-5-5-5-5-5-5-5-3-3-3-3-3-3-3-3-3-3-3-3-3-3-1-1-1-1-1-1-1-1-1-1-1-1-1-1-0-0-0-0-0-0-0-0-1111-3333-5*--|
A|-------------------------------------------------------------------------------------------------------------------|
E|-------------------------------------------------------------------------------------------------------------------|

Chorus

G|------------------------------------------------------------------|
D|-5555555555-5555-3333333333-3333-1111111111-1111-3333333333-3333--| (x2)
A|------------------------------------------------------------------|
E|------------------------------------------------------------------|

Verse 2

G|-------------------------------------------------------------------------------------|
D|--55555-55555-5555-1-11111-11111-1111------------------------------------------------|    \ Do twice
A|----------------------------------------------------11111-11111-1111-55555555555555--|          / Do twice
E|-------------------------------------------------------------------------------------|

Than verse 1 once. Than:

G|--------------------------------------------------|
D|-55-55-55-33-33-33-11-11--111-00000000-1111-3333--|
A|--------------------------------------------------|
E|--------------------------------------------------|

Chorus

G|------------------------------------------------------------------|
D|-5555555555-5555-3333333333-3333-1111111111-1111-3333333333-3333--| (x2)
A|------------------------------------------------------------------|
E|------------------------------------------------------------------|

I can’t hear the rest under his scream but I think its Verse two again…. Than it’s the chorus again
Have fun!

| *- hold note
===============================================================================
Composição de Escape the Fate
45 exibições

0 comentários

Ver todos os comentários
00:00 / 00:00
Outros vídeos desta música
Repetir Qualidade Automático
Outros vídeos desta música
00:00 / 00:00
Automático

Cifra Club Pro

Aproveite o Cifra Club com benefícios exclusivos e sem anúncios
Cifra Club Pro
Aproveite o Cifra Club com benefícios exclusivos e sem anúncios
OK