Cifra Club

Ungrateful

Escape The Fate

Cifra: Principal (violão e guitarra)
tom: C
Verse
D|---------------------------------------------|
A|---------------------------------------------|
F|---------------------------------------------|
C|---------------------------------------------|
G|-3p0--0-0-5p0--0-0-6p0--0-0-0-0-0-0-0-0-0-0--|
C|-3p0--0-0-5p0--0-0-6p0--0-0-0-0-0-0-0-0-0-0--|
                            (------P.M.-------|

 Verse B Rhythm (Still Beating, Still Breathing)
D|-------------------------------------------|
A|-------------------------------------------|
F|-------------------------------------------|
C|-------------------------------------------|
G|-3p0--0-0-0-3--3p0--0-0-0-0-0-0-0-0-0-0-0--|
C|-3p0--0-0-0-3--3p0--0-0-0-0-0-0-0-0-0-0-0--|
                        (-------P.M.--------|

 Verse B Lead
D|---------------------------------------------|
A|---------------------------------------------|
F|---------------------------------------------|
C|---------------------------------------------|
G|-8p5--0-0-0-3--8p5--0-0-0------8-7---------7-|
C|------------3-------0-0-0-7-10-----10-7-10---|

Chorus
D|-----------------------------------------------------------------|
A|-----------------------------------------------------------------|
F|-----------------------------------------------------------------|
C|-3-3-3-3-3-3-3-3-5-5-5-5-5-5-5-5-7-7-7-7-7-7-7-7-5-5-5-5-5-5-5-5-|
G|-1-1-1-1-1-1-1-1-3-3-3-3-3-3-3-3-5-5-5-5-5-5-5-5-3-3-3-3-3-3-3-3-|
C|-----------------------------------------------------------------|

D|-----------------------------------------------------------------|
A|-----------------------------------------------------------------|
F|-----------------------------------------------------------------|
C|-3-3-3-3-3-3-3-3-5-5-5-5-5-5-5-5-7-7-7-7-7-7-7-7-2-2-2-2-2-2-2-2-|
G|-1-1-1-1-1-1-1-1-3-3-3-3-3-3-3-3-5-5-5-5-5-5-5-5-0-0-0-0-0-0-0-0-|
C|-----------------------------------------------------------------|

Verse
D|---------------------------------------------|
A|---------------------------------------------|
F|---------------------------------------------|
C|---------------------------------------------|
G|-3p0--0-0-5p0--0-0-6p0--0-0-0-0-0-0-0-0-0-0--|
C|-3p0--0-0-5p0--0-0-6p0--0-0-0-0-0-0-0-0-0-0--|
                            (------P.M.-------|

 Verse B Rhythm (Still Beating, Still Breathing)
D|-------------------------------------------|
A|-------------------------------------------|
F|-------------------------------------------|
C|-------------------------------------------|
G|-3p0--0-0-0-3--3p0--0-0-0-0-0-0-0-0-0-0-0--|
C|-3p0--0-0-0-3--3p0--0-0-0-0-0-0-0-0-0-0-0--|
                        (-------P.M.--------|

 Verse B Lead
D|---------------------------------------------|
A|---------------------------------------------|
F|---------------------------------------------|
C|---------------------------------------------|
G|-8p5--0-0-0-3--8p5--0-0-0------8-7---------7-|
C|------------3-------0-0-0-7-10-----10-7-10---|

Chorus
D|-----------------------------------------------------------------|
A|-----------------------------------------------------------------|
F|-----------------------------------------------------------------|
C|-3-3-3-3-3-3-3-3-5-5-5-5-5-5-5-5-7-7-7-7-7-7-7-7-5-5-5-5-5-5-5-5-|
G|-1-1-1-1-1-1-1-1-3-3-3-3-3-3-3-3-5-5-5-5-5-5-5-5-3-3-3-3-3-3-3-3-|
C|-----------------------------------------------------------------|

D|-----------------------------------------------------------------|
A|-----------------------------------------------------------------|
F|-----------------------------------------------------------------|
C|-3-3-3-3-3-3-3-3-5-5-5-5-5-5-5-5-7-7-7-7-7-7-7-7-2-2-2-2-2-2-2-2-|
G|-1-1-1-1-1-1-1-1-3-3-3-3-3-3-3-3-5-5-5-5-5-5-5-5-0-0-0-0-0-0-0-0-|
C|-----------------------------------------------------------------|

Breakdown
1st and 3rd     2nd time                        4th time
D|--------------|-------------------------------|-------------|
A|--------------|-------------------------------|-------------|
F|--------------|-------------------------------|-------------|
C|--------------|-------------------------------|-------------|
G|-0--0--0--7b8-|-0--0--0-------8-7---------7---|-0--2--3--5--|
C|-0--0--0------|-0--0--0--7-10-----10-7-10-----|-0--2--3--5--|

Solo Rhythm
D|--------------------------------------------------------|
A|--------------------------------------------------------|
F|--------------------------------------------------------|
C|--------------------------------------------------------|
G|-0-0--0-0-0-0--2-2--2-2-2-2--3-3--3-3-3-3--2-2--2-2-2-2-|
C|-0-0--0-0-0-0--2-2--2-2-2-2--3-3--3-3-3-3--2-2--2-2-2-2-|

D|--------------------------------------------------------|
A|--------------------------------------------------------|
F|--------------------------------------------------------|
C|--------------------------------------------------------|
G|-0-0--0-0-0-0--2-2--2-2-2-2--3-3--3-3-3-3--5-5--5-5-5-5-|
C|-0-0--0-0-0-0--2-2--2-2-2-2--3-3--3-3-3-3--5-5--5-5-5-5-|

Solo Lead
D|-17p13----13h17p13----13h17p13----13h17p13----|
A|-------15----------15----------15----------15-|
F|----------------------------------------------|
C|----------------------------------------------|
G|----------------------------------------------|
C|----------------------------------------------|

D|-15p12----12h15p12----12h15p12----12h15p12----|
A|-------13----------13----------13----------13-|
F|----------------------------------------------|
C|----------------------------------------------|
G|----------------------------------------------|
C|----------------------------------------------|

D|-18p15----15h18p15----15h18p15----15h18p15----|
A|-------16----------16----------16----------16-|
F|----------------------------------------------|
C|----------------------------------------------|
G|----------------------------------------------|
C|----------------------------------------------|

D|-15p12----12h15p12----12h15p12----12h15p12----|
A|-------13----------13----------13----------13-|
F|----------------------------------------------|
C|----------------------------------------------|
G|----------------------------------------------|
C|----------------------------------------------|

D|-------------------------------15b17r15--15-17-18-17--15-13-12-|
A|---------------------------------------------------------------|
F|-10---10-12-14-12--12-14-15-14---------------------------------|
C|---------------------------------------------------------------|
G|---------------------------------------------------------------|
C|---------------------------------------------------------------|

Pre-Chorus
D|---------------|
A|---------------|
F|---------------|
C|---------------|
G|-5----5---3--2-|
C|-5----5---3--2-|

Chorus x4
D|-----------------------------------------------------------------|
A|-----------------------------------------------------------------|
F|-----------------------------------------------------------------|
C|-3-3-3-3-3-3-3-3-5-5-5-5-5-5-5-5-7-7-7-7-7-7-7-7-5-5-5-5-5-5-5-5-|
G|-1-1-1-1-1-1-1-1-3-3-3-3-3-3-3-3-5-5-5-5-5-5-5-5-3-3-3-3-3-3-3-3-|
C|-----------------------------------------------------------------|

D|-----------------------------------------------------------------|
A|-----------------------------------------------------------------|
F|-----------------------------------------------------------------|
C|-3-3-3-3-3-3-3-3-5-5-5-5-5-5-5-5-7-7-7-7-7-7-7-7-2-2-2-2-2-2-2-2-|
G|-1-1-1-1-1-1-1-1-3-3-3-3-3-3-3-3-5-5-5-5-5-5-5-5-0-0-0-0-0-0-0-0-|
C|-----------------------------------------------------------------|

Outro
D|---------------------------------------------------|
A|---------------------------------------------------|
F|---------------------------------------------------|
C|---------------------------------------------------|
G|-0--0--0-----0--0--0------0--0--0------0--0--0-----|
C|-0--0--0-db--0--0--0--db--0--0--0--db--0--0--0--db-|
db=dive bomb
Composição de Brandon Saller / Craig Mabbitt / Monte Money
Colaboração e revisão:
  • Iago Victor
1.108 exibições
    • ½ Tom
    • A
    • Bb
    • B
    • C
    • Db
    • D
    • Eb
    • E
    • F
    • F#
    • G
    • Ab
  • Adicionar à lista

    0 comentários

    Ver todos os comentários

    Conseguiu tocar?

    0 Tocaram 0 Ainda não

    Grave um vídeo tocando Ungrateful e nos envie!

    00:00 / 00:00
    Outros vídeos desta música
    Repetir Qualidade Automático
    Outros vídeos desta música
    00:00 / 00:00
    Automático

    Cifra Club Pro

    Aproveite o Cifra Club com benefícios exclusivos e sem anúncios
    Cifra Club Pro
    Aproveite o Cifra Club com benefícios exclusivos e sem anúncios
    OK