Cifra Club

You're Insane

Escape The Fate

Cifra: Principal (violão e guitarra)
tom: Dm
E|--------------------------------------------------------------------------|
B|--------------------------------------------------------------------------|.
G|--------------------------------------------------------------------------|
D|--3-----5-----0-----6 -----6---5--3-----5-----0-----6-6-6-5-3-------------|  (x2)
A|----0-0---0-0---0-0---0-0---0-------0-0---0-0---0-0-----------------------|.
E|--------------------------------------------------------------------------|

E|------------------------------------------|
B|------------------------------------------|
G|-3-----5-----0-----6-6-6-5-5-5------------|
A|---0-0---0-0---0-0-6-6-6-5-5-5------------|
E|-------------------6-6-6-5-5-5------------|
 OH!
E|--------------------------------------------------------------------------|
B|--------------------------------------------------------------------------|
G|--------------------------------------------------------------------------|
D|--3-0-0-5-0-0-0-0-0-6-0-0-6-0-5----3-0-0-5-0-0-0-0-0-6-0-0-6-6-6-5-3------|
A|--3-0-0-5-0-0-0-0-0-6-0-0-6-0-5----3-0-0-5-0-0-0-0-0-6-0-0-6-6-6-5-3------|
E|--3-0-0-5-0-0-0-0-0-6-0-0-6-0-5----3-0-0-5-0-0-0-0-0-6-0-0-6-6-6-5-3------|
      . .   . .   . .   . .   .        . .   . .   . .   . .     
I'll take you back to the beginning! (Verse)
E|-----------------------------------------------------------------|
B|-----------------------------------------------------------------|
G|-----------------------------------------------------------------|
D|-3-0-0-0--000---------------------000------------3---------------|
A|-3-0-0-0--000---------------------000----6-5-3-5-----------------|
E|-3-0-0-0--000--3-0-5-0-0--3-0-0-0-000----------------------------|
     . . .  ...    .   .      . . . ...   

E|----------------------------------------------------------------|
B|----------------------------------------------------------------|
G|----------------------------------------------------------------|
D|-3-0-0-0--000---------------------000---------------------------|
A|-3-0-0-0--000---------------------000---------------------------|
E|-3-0-0-0--000--3-0-5-0-0--3-0-0-0-000-0000000-------------------|

E|--------------------------------------------------------------------------|
B|--------------------------------------------------------------------------|
G|--------------------------------------------------------------------------|
D|--------------------------------------------------------------------------|
A|--------------------------------------------------------------------------|
E|--3-0-0-5-0-0-0-0-0-6-0-0-6-0-5----3-0-0-5-0-0-0-0-0-6-0-0-0-0-0-0-0------|
      . .   . .   . .   . .   . +      . .   . .   . .   . . . . . . . 

E|--------------------------------------------------------------------------|
B|--------------------------------------------------------------------------|
G|--------------------------------------------------------------------------|
D|--------------------------------------------------------------------------|
A|--------------------------------------------------------------------------|
E|--3-0-0-5-0-0-0-0-0-6-0-0-6-0-5----3-0-0-5-0-0-0-0-0-6-0-0-0-0-0-0-0------|

Stand back while your world decays(Chorus)
E|--------------------------------------------------------------|
B|--------------------------------------------------------------|
G|-------------------------5------------------------------------|
D|--0-----7-----8-----3----5------0-----7-----8-----3-----1-----|
A|--0-----7-----8-----3----3------0-----7-----8-----3-----1-----|
E|--0-----7-----8-----3-----------0-----7-----8-----3-----1-----|
(Didnt feel like typing out all of the notes)

E|--------------------------------------------------------------------------|
B|--------------------------------------------------------------------------|
G|--------------------------------------------------------------------------|
D|--3-0-0-5-0-0-0-0-0-6-0-0-6-0-5----3-0-0-5-0-0-0-0-0-6-0-0-6-6-6-5-3------|
A|--3-0-0-5-0-0-0-0-0-6-0-0-6-0-5----3-0-0-5-0-0-0-0-0-6-0-0-6-6-6-5-3------|
E|--3-0-0-5-0-0-0-0-0-6-0-0-6-0-5----3-0-0-5-0-0-0-0-0-6-0-0-6-6-6-5-3------|

|---------------------------------------------------------------------------|
B|--------------------------------------------------------------------------|
G|--------------------------------------------------------------------------|
D|----------000---------------------000-----------3-------------------------|
A|----------000---------------------000---6-5-3-5---------------------------|
E|-3-0-0-0--000--3-0-5-0-0--3-0-0-0-000-------------------------------------|
     . . .  ...    .   .      . . . ...  

E|----------------------------------------------------------------|
B|----------------------------------------------------------------|
G|----------------------------------------------------------------|
D|----------000---------------------000---------------------------|
A|----------000---------------------000---------------------------|
E|-3-0-0-0--000--3-0-5-0-0--3-0-0-0-000-000000--------------------|

E|--------------------------------------------------------------------------|
B|--------------------------------------------------------------------------|
G|--------------------------------------------------------------------------|
D|--------------------------------------------------------------------------|
A|--------------------------------------------------------------------------|
E|--3-0-0-5-0-0-0-0-0-6-0-0-6-0-5----3-0-0-5-0-0-0-0-0-6-0-0-0-0-0-0-0------|
      . .   . .   . .   . .   . +      . .   . .   . .   . . . . . . . 

E|--------------------------------------------------------------------------|
B|--------------------------------------------------------------------------|
G|--------------------------------------------------------------------------|
D|--------------------------------------------------------------------------|
A|--------------------------------------------------------------------------|
E|--3-0-0-5-0-0-0-0-0-6-0-0-6-0-5----3-0-0-5-0-0-0-0-0-6-0-0-0-0-0-0-0------|

Stand back while your world decay(Chorus)
E|--------------------------------------------------------------|
B|--------------------------------------------------------------|
G|-------------------------5------------------------------------|
D|--0-----7-----8-----3----5------0-----7-----8-----3-----1-----|(x2)
A|--0-----7-----8-----3----3------0-----7-----8-----3-----1-----|
E|--0-----7-----8-----3-----------0-----7-----8-----3-----1-----|

E|------------------------------------------------------|
B|------------------------------------------------------|
G|------------------------------------------------------|
D|--3-0-0-5-0-0--3-0-0-5-0-0--3-0-0-5-0-0--6-6-6-5-5-3--|(x2)
A|--3-0-0-5-0-0--3-0-0-5-0-0--3-0-0-5-0-0--6-6-6-5-5-3--|
E|--3-0-0-5-0-0--3-0-0-5-0-0--3-0-0-5-0-0--6-6-6-5-5-3--|

Didnt have time to do solo backing to the solo is below

E|-------------------------------------------------------------------------------------|
B|-------------------------------------------------------------------------------------|
G|-------------------------------------------------------------------------------------|
D|--3-0-0-5-0-0-0-0-0-6-0-0-6-0-5----3-0-0-5-0-0-0-0-0-6-0-0-0-0-0-0-0-----------------|(x2)
A|--3-0-0-5-0-0-0-0-0-6-0-0-6-0-5----3-0-0-5-0-0-0-0-0-6-0-0-0-0-0-0-0-----------------|
E|--3-0-0-5-0-0-0-0-0-6-0-0-6-0-5----3-0-0-5-0-0-0-0-0-6-0-0-0-0-0-0-0-----------------|
      . .   . .   . .   . .   .        . .   . .   . .   . . . . . . .    

    End to backing for solo
   |----------------------|
   |----------------------|
   |-6-6-6-5-3-6-6-6-5-3--|
   |-6-6-6-5-3-6-6-6-5-3--|
   |-6-6-6-5-3-6-6-6-5-3--|

Refrão:
E|--------------------------------------------------------------|
B|--------------------------------------------------------------|
G|-------------------------5------------------------------------|
D|--0-----7-----8-----3----5------0-----7-----8-----3-----1-----|(x2)
A|--0-----7-----8-----3----3------0-----7-----8-----3-----1-----|
E|--0-----7-----8-----3-----------0-----7-----8-----3-----1-----|

E|------------------------------------------------------|
B|------------------------------------------------------|
G|------------------------------------------------------|
D|--3-0-0-5-0-0--3-0-0-5-0-0--3-0-0-5-0-0--6-6-6-5-5-3--|(x2)
A|--3-0-0-5-0-0--3-0-0-5-0-0--3-0-0-5-0-0--6-6-6-5-5-3--|
E|--3-0-0-5-0-0--3-0-0-5-0-0--3-0-0-5-0-0--6-6-6-5-5-3--|

Composição de Escape the Fate
Colaboração e revisão:
  • Juliano Martins
269 exibições
    • ½ Tom
    • Am
    • Bbm
    • Bm
    • Cm
    • C#m
    • Dm
    • Ebm
    • Em
    • Fm
    • F#m
    • Gm
    • G#m
  • Adicionar à lista

    0 comentários

    Ver todos os comentários

    Conseguiu tocar?

    0 Tocaram 0 Ainda não

    Grave um vídeo tocando You're Insane e nos envie!

    00:00 / 00:00
    Outros vídeos desta música
    Repetir Qualidade Automático
    Outros vídeos desta música
    00:00 / 00:00
    Automático

    Cifra Club Pro

    Aproveite o Cifra Club com benefícios exclusivos e sem anúncios
    Cifra Club Pro
    Aproveite o Cifra Club com benefícios exclusivos e sem anúncios
    OK