Deus Não Está Morto

Escarlate

Composição de: André Rangel
tom: B
intro:G#m   F#    B

E|------------------------------------------------------------------
B|--7-7-7--4-4-4-4-4--7-7-7-----------------------------------------
G|-------------------------3-3-3-3-3--4-4-4-4-4-4-4-4-4-4-4-4-4-4---
D|------------------------------------------------------------------
A|------------------------------------------------------------------
E|------------------------------------------------------------------
Solo (3x)

G#m         F#           B
Deixe explodir o amor de Deus em nós
C#m      G#m            E
Clamamos Deus por uma revolução de amor

E|------------------------------------------------------------------
B|--7-7-7--4-4-4-4-4--7-7-7-----------------------------------------
G|-------------------------3-3-3-3-3--4-4-4-4-4-4-4-4-4-4-4-4-4-4---
D|------------------------------------------------------------------
A|------------------------------------------------------------------
E|------------------------------------------------------------------

G#m         F#           B
Deixe explodir o amor de Deus em nós
C#m      G#m            E
Clamamos Deus por uma revolução de amor

F#                G#m7 F#                 E
Seu amor me faz livre, e a esse mundo vou declarar
F#                                    G#m7
Meu Deus não está morto, Ele é vivo e vive dentro de mim, ouço seu rugido 
F#                                    G#m7                E
Meu Deus não está morto, Ele é vivo e vive dentro de mim, ouço seu rugido 
G#m   F#    B
Ouço, ouço, ouço Seu rugido
G#m         F#           B
Deixe explodir o amor de Deus em nós
C#m      G#m            E
Clamamos Deus por uma revolução de amor
F#                G#m7 F#                 E
Seu amor me faz livre, e a esse mundo vou declarar
F#                                    G#m7
Meu Deus não está morto, Ele é vivo e vive dentro de mim, ouço seu rugido 
F#                                    G#m7
Meu Deus não está morto, Ele é vivo e vive dentro de mim, ouço seu rugido 
F#                                    G#m7
Meu Deus não está morto, Ele é vivo e vive dentro de mim, ouço seu rugido 
F#                                    G#m7                E
Meu Deus não está morto, Ele é vivo e vive dentro de mim, ouço seu rugido 
G#m   F#    B
Ouço, ouço, ouço Seu rugido
G#m         F#           B
Deixe explodir o amor de Deus em nós
C#m      G#m                  E
E que haja fé, pelo poder da redenção
F#                G#m7 F#                 E
Seu amor me faz livre, e a esse mundo vou declarar
F#                                    G#m7
Meu Deus não está morto, Ele é vivo e vive dentro de mim, ouço seu rugido 
F#                                    G#m7
Meu Deus não está morto, Ele é vivo e vive dentro de mim, ouço seu rugido 
F#                                    G#m7
Meu Deus não está morto, Ele é vivo e vive dentro de mim, ouço seu rugido 
F#                                    G#m7                E
Meu Deus não está morto, Ele é vivo e vive dentro de mim, ouço seu rugido 
G#m   F#    B
Ouço, ouço, ouço Seu rugido
B                   B/Bb
Vem Senhor, com seu fogo
G#m                         C#m
Shekinah, teus sinais, avivamento
B                   B/Bb
Vem Senhor, com seu fogo
G#m                         C#m
Shekinah, teus sinais, avivamento
B                   B/Bb
Vem Senhor, com seu fogo
G#m                         C#m
Shekinah, teus sinais, avivamento
F#                                    G#m7
Meu Deus não está morto, Ele é vivo e vive dentro de mim, ouço seu rugido 
F#                                    G#m7
Meu Deus não está morto, Ele é vivo e vive dentro de mim, ouço seu rugido 
F#                                    G#m7
Meu Deus não está morto, Ele é vivo e vive dentro de mim, ouço seu rugido 
F#                                    G#m7                E
Meu Deus não está morto, Ele é vivo e vive dentro de mim, ouço seu rugido 
G#m   F#    B
Ouço, ouço, ouço Seu rugido
Página 1 / 1

Letras e título
Acordes e artista

resetar configurações
OK