Enviar cifraEntrar

Dor e Confiança

Espírita

Cifra: Principal
exibições 376
Tom: G

    Em                                                C
E|---------0------0------0------0------0------0--------------0------0------0------0------0---------0------|
B|------------0------0------0------0------0----------------------1------1------1-----1------1-------------|
G|---------------0------0------0------0-----0------------------------0-----0------0-----0------0----------|
D|----2---------------------------------------------------2-----------------------------------------------|
A|-2--------------------------------------------------3---------------------------------------------------|
E|--------------------------------------------------------------------------------------------------------|


     D                                                               Em
E|------------2-------2-------2-------2------2------2------0---------0---------------|
B|---------------3-------3-------3-------3----------3------0---------0---------------|
G|-----2------------2-------2-------2-------2-------4------0---------0---------------|
D|--0----------------------------------------------------------------2---------------|
A|-------------------------------------------------------------------2---------------|
E|-----------------------------------------------------------------------------------|


Em                       C
Pés descalços, mão marcadas
                                 D
Moradores das calçadas, esquecidos
                   Em
Como a própria noite
                            C
Rosto triste, olhar tão raro
                         D
Na esperança de um amparo
                             Em
O silêncio mostra a própria dor
           C    D       G        D      Em
Sem perceber finjo não ver e prefiro evitar
         C       D     G       D       Em
Preciso ter olhos de ver e mãos de ajudar
      C              D
E amar como Ele amou...
Em                          C
Pés descalços, mãos marcadas
                         D
Jesus Cristo nas calçadas,
                            Em
Esquecido como a própria noite
                            C
Rosto triste, olhar tão raro
                         D
Na esperança de um amparo
                             Em
O silêncio mostra a própria dor
           C    D       G        D       Em
Sem perceber finjo não ver e prefiro evitar
         C       D     G       D        Em
Preciso ter olhos de ver e mãos de ajudar
      C              D
E amar como Ele amou...


(ultimo refrão com dedilhado da introdução)

Em                         C
Pés descalços, mãos marcadas
                        D
Jesus Cristo nas calçadas,
                            Em
Esquecido como a própria noite
  • 1
  • 2
  • 3
  • 4
  • 5
  • 6
  • 7
  • 8
  • 9
  • 10
  • 11
  • 12
    Acordes para:
      Colaboração e revisão:
      • Larissa Freitas

      0 comentários

        mostrar mais comentários

        Conseguiu tocar?

        0tocaram0ainda não

        Grave um vídeo tocando Dor e Confiança e mande pra gente!

        00:00 / 00:00
        outros vídeos desta música
        repetirqualidadeautomática
        • automática
        Outro vídeos desta música
          00:00 / 00:00
          automática
          • automática
          Acordes para:violão e guitarra
          dificuldadeexibiçõescontribuições
          fecharplay/pause subir/descer velocidade
            Acordes para:violão e guitarra
            acordes
            fechar
            OK