Cifra Club

El velo

Estados Alterados

Cifra: Principal (violão e guitarra)
tom: Em
  Riff A. [00:18]
  e||-------13-13--------15-15-------15----
  B||-14-14-------14-14--------16-16----16-
  G||--------------------------------------

E|-------15-15--------15-15-------15----| este Riff se repite
B|-15-15-------15-15--------16-16----16-| durante casi toda
G|--------------------------------------| la cancion

  Riff B. [00:27]
  e||--------12-------15--13--12-13--17-
  B||-13-15-----15-13-------------------
  G||-----------------------------------

E|-15--14-12-14--------12-------| este Riff espiempieza
B|---------------13-15----15-13-| con el Riff A. de fondo
G|------------------------------| y se repite una vez

Frialdad es la palabra
que jamás pensé
tus mañanas son iguales
te cansaste de mirar
panoramas vacíos.
Tejiste un gran velo,
la maleza te encerró
y tu velo te asfixió.

  Riff B: [00:53]

Jamás pensé, Jamás pensé.


  Riff C. [01:04]
  e||----------------------------------------
  B||----12----12----------------------------
  G||-12----12----12----------------12-14-12-
  D||----------------13-13-13-13-13----------

E|-------------------------------| se repite 2 veces,
B|-------------------15-14-12-14-| en la segunda parte
G|----------------12-------------| vuelve a entrar el
D|-13-12-12-12-12----------------| Riff B. pero cambia

Tendida en el suelo
yo siento que esperas
que alguien te encuentre
y tu no lo buscas.

Tendida en el suelo
yo siento que esperas
que alguien te encuentre
y tu no lo buscas.

  Riff A. [01:37]

y tu no lo buscas.

  Riff C. [01:54]
  e||-17----16-------15-------|se repite 3 veces
  B||----18----17-16----16-15-|mientras suena el
  G||-------------------------|Riff A. de fondo
  continuacion del Riff C.
  e||-21----20-------21-20----|en total, el Riff C.
  B||----22----21-20-------21-|se repite 2 veces
  G||-------------------------|

Se te ocurre algo
quisiera que si
solo por saber
que no me dirijo
a una pared.

  Riff A. [02:21]

Si la luz no te atrae
si tu mundo es tan gris
trata de sentir mas allá
de ti.

  Riff B. [02:30]

Tendida en el suelo
yo siento que esperas
que alguien te encuentre
y tu no lo buscas.

Tendida en el suelo
yo siento que esperas
que alguien te encuentre
y tu no lo buscas.

  Riff A. [02:56]

y tu no lo buscas.

  Riff C. [03:13]

  Riff B. [02:30]

Se te ocurre algo
quisiera que si
solo por saber
que no me dirijo
a una pared.
Si la luz no te atrae
si tu mundo es tan gris
trata de sentir mas allá
de ti.

Frialdad es la palabra
que jamás pensé
tus mañanas son iguales
te cansaste de mirar
panoramas vacíos.
Tejiste un gran velo,
la maleza te encerró
y tu velo te asfixió.
Jamás pensé, Jamás pensé.
00:00 / 00:00
Outros vídeos desta música
Repetir
Outros vídeos desta música
Composição de Estados Alterados
14 exibições
    • ½ Tom
    • Am
    • Bbm
    • Bm
    • Cm
    • C#m
    • Dm
    • Ebm
    • Em
    • Fm
    • F#m
    • Gm
    • G#m
  • Adicionar à lista

    0 comentários

    Ver todos os comentários

    Entre para oCifra Club PRO

    Tenha acesso a benefícios exclusivos no App e no Site

    • Chega de anúncios

    • Prioridade de compra em lançamentos

    • Mais recursos no app do Afinador

    • Atendimento Prioritário

    • Descontos nos produtos Cifra Club

    • Ajude a produzir mais conteúdo

    00:00 / 00:00

    Cifra Club Pro

    Aproveite o Cifra Club com benefícios exclusivos e sem anúncios
    Cifra Club Pro
    Aproveite o Cifra Club com benefícios exclusivos e sem anúncios
    OK