Cifra Club

Tá Vendo Aquela Lua

Exaltasamba

Cifra: Principal (violão e guitarra)
Tom: G#m
[Primeira Parte]

   B6
E|------------------------------------------|
B|-7-7-----7-7-7-----7----------------------|
G|-8-8-----8-8-8-----8----------------------|
D|-6-6-----6-6-6-----6----------------------|
A|------------------------------------------|
E|-7----7----7----7-------------------------|

   B7M         B7(13-)     E7M(9)
E|------------------------------------------|
B|-7---7---7---8---8---8---7---7---7--------|
G|-8---8---8---8---8---8---8---8---8--------|
D|-8---8---8---7---7---7---6---6---6--------|
A|---------------------------7---7----------|
E|----7---7------7---7----------------------|

   E7M(9)
E|------------------------------------------|
B|-7---7----7-------------------------------|
G|-8---8----8-------------------------------|
D|-6---6----6-------------------------------|
A|-------7----------------------------------|
E|-7----------------------------------------|

   B7M         B7(13-)     E7M(9)
E|------------------------------------------|
B|-7---7---7---8---8---8---7---7---7--------|
G|-8---8---8---8---8---8---8---8---8--------|
D|-8---8---8---7---7---7---6---6---6--------|
A|---------------------------7---7----------|
E|----7---7------7---7----------------------|

   C#m7   D#m7      G#m7(9)
E|------------------------------------------|
B|-9---9--11----11--11----11----11----------|
G|-9---9--11----11--11----11----11----------|
D|-9---9--11----11--9-----9-----9-----------|
A|---------------------11----11-------------|
E|---9-------11-----------------------------|

   F#m7(5-)    E7M(9)     Em6
E|------------------------7-7---7-----------|
B|-9---9---9---7---7---7--8-8---8-----------|
G|-8---8---8---8---8---8--6-6---6-----------|
D|-9---9---9---6---6---6--------------------|
A|---8---8-------7---7----7---7-------------|
E|------------------------------------------|

   B7M         B4(7/9)
E|------------------------------------------|
B|-7---7---7---5----5----5------------------|
G|-8---8---8---6----6----6------------------|
D|-8---8---8---7----7----7------------------|
A|------------------------------------------|
E|---7---7--------7----7--------------------|

B6
  Te filmando eu tava quieto no meu canto
   B7M                 B7(13-)
Cabelo bem cortado perfume exalando
E7M(9)
      Daquele jeito que eu sei que você gosta
    B7M                  B7(13-)
Mas eu te dei um papo e você nem deu resposta
E7M(9)              C#m7    D#m7      G#m7(9)
      Tudo bem um dia vai e outro vem
                    Fm7(5-)             
Você deve estar pensando em outro alguém
E7M(9)                   Em6           B7M
      Mas se ele te merecesse não estaria aqui
  B4(7/9)
(Não, não, não)
E7M(9)               C#m7   D#m7     G#m7(9)
Ou talvez você não queira se envolver
                Fm7(5-)       
Magoada tá com medo de sofrer
E7M(9)                      F#4(7/9)       B7M
      Se me der uma chance não vai se arrepender
  F#4(7/9)           
(Não, não, não, não, não)

[Refrão]

   B7M       F4+(7/9)    E7M(9)
E|------------7---7---7---------------------|
B|-7--7---7---8---8---8--7---7---7----------|
G|-8--8---8---8---8---8--8---8---8----------|
D|-8--8---8--------------6---6---6----------|
A|--------------8---8------7---7------------|
E|---7--7-----------------------------------|

   F#4(7/9)
E|------------------------------------------|
B|-9---9----9-------------------------------|
G|-9---9----9-------------------------------|
D|-9---9----9-------------------------------|
A|---9---9----------------------------------|
E|------------------------------------------|

   B7M       F4+(7/9)    E7M(9)
E|------------7---7---7---------------------|
B|-7--7---7---8---8---8--7---7---7----------|
G|-8--8---8---8---8---8--8---8---8----------|
D|-8--8---8--------------6---6---6----------|
A|--------------8---8------7---7------------|
E|---7--7-----------------------------------|

   F#4(7/9)  
E|------------------------------------------|
B|-9---9-----11-----11----------------------|
G|-9---9-----9------9-----------------------|
D|-9---9-----11-----11----------------------|
A|---9-----------10-------------------------|
E|------------------------------------------|

   G#m7(9)          D#m7
E|------------------------------------------|
B|-11----11----11---11----11----11----------|
G|-11----11----11---11----11----11----------|
D|-9-----9-----9----11----11----11----------|
A|----11----11------------------------------|
E|---------------------11----11-------------|

   E7M(9)      A#m7(5-)  D#7(9-)
E|------------------------------------------|
B|-7---7---7---5---5-----5---5--------------|
G|-8---8---8---6---6-----6---6--------------|
D|-6---6---6---6---6-----5---5--------------|
A|---7---7-----------------6----------------|
E|---------------6--------------------------|

   G#m7(9)          D#m7
E|------------------------------------------|
B|-11----11----11---11----11----11----------|
G|-11----11----11---11----11----11----------|
D|-9-----9-----9----11----11----11----------|
A|----11----11------------------------------|
E|---------------------11----11-------------|

   E7M(9)      F#4(7/9)
E|------------------------------------------|
B|-7---7---7---9---9---9--------------------|
G|-8---8---8---9---9---9--------------------|
D|-6---6---6---9---9---9--------------------|
A|---7---7-------9---9----------------------|
E|------------------------------------------|

   B7M         F#4(7/9)
E|------------------------------------------|
B|-7---7---7---9---9---9--------------------|
G|-8---8---8---9---9---9--------------------|
D|-8---8---8---9---9---9--------------------|
A|---------------9---9----------------------|
E|---7---7----------------------------------|

B7M                  F4+(7/9)             E7M(9)
    Tá vendo aquela lua que brilha lá no céu?
            F#4(7/9)                      B7M
Se você me pedir eu vou buscar só pra te dar
                     F4+(7/9)               E7M(9)
Se bem que o brilho dela nem se compara ao seu
                    F#4(7/9)            
Deixa eu te dar um beijo vou mostrar 
          G#m7(9)
O tempo que perdeu
           D#m7              E7M(9)
Que coisa louca, eu já sabia
         A#m7(5-)       D#7(9-)      G#m7(9)
Enquanto eu me arrumava algo me dizia
          D#m7                 E7M(9)
Você vai encontrar alguém que vai mudar
       F#4(7/9)                     
A sua vida inteira da noite pro dia

B7M                  F4+(7/9)             E7M(9)
    Tá vendo aquela lua que brilha lá no céu?
            F#4(7/9)                      B7M
Se você me pedir eu vou buscar só pra te dar
                     F4+(7/9)               E7M(9)
Se bem que o brilho dela nem se compara ao seu
                    F#4(7/9)            
Deixa eu te dar um beijo vou mostrar 
          G#m7(9)
O tempo que perdeu
           D#m7              E7M(9)
Que coisa louca, eu já sabia
         A#m7(5-)       D#7(9-)      G#m7(9)
Enquanto eu me arrumava algo me dizia
          D#m7                 E7M(9)
Você vai encontrar alguém que vai mudar
       F#4(7/9)                     
A sua vida inteira da noite pro dia

[Primeira Parte]

B6
  Te filmando eu tava quieto no meu canto
   B7M                 B7(13-)
Cabelo bem cortado perfume exalando
E7M(9)
      Daquele jeito que eu sei que você gosta
    B7M                  B7(13-)
Mas eu te dei um papo e você nem deu resposta
E7M(9)              C#m7    D#m7      G#m7(9)
      Tudo bem um dia vai e outro vem
                    Fm7(5-)             
Você deve estar pensando em outro alguém
E7M(9)                   Em6           B7M
      Mas se ele te merecesse não estaria aqui
  B4(7/9)
(Não, não, não)
E7M(9)               C#m7   D#m7     G#m7(9)
Ou talvez você não queira se envolver
                Fm7(5-)       
Magoada tá com medo de sofrer
E7M(9)                      F#4(7/9)       B7M
      Se me der uma chance não vai se arrepender
  F#4(7/9)           
(Não, não, não, não, não)

[Refrão]

B7M                  F4+(7/9)             E7M(9)
    Tá vendo aquela lua que brilha lá no céu?
            F#4(7/9)                      B7M
Se você me pedir eu vou buscar só pra te dar
                     F4+(7/9)               E7M(9)
Se bem que o brilho dela nem se compara ao seu
                    F#4(7/9)            
Deixa eu te dar um beijo vou mostrar 
          G#m7(9)
O tempo que perdeu
           D#m7              E7M(9)
Que coisa louca, eu já sabia
         A#m7(5-)       D#7(9-)      G#m7(9)
Enquanto eu me arrumava algo me dizia
          D#m7                 E7M(9)
Você vai encontrar alguém que vai mudar
       F#4(7/9)                     
A sua vida inteira da noite pro dia

B7M                  F4+(7/9)             E7M(9)
    Tá vendo aquela lua que brilha lá no céu?
            F#4(7/9)                      B7M
Se você me pedir eu vou buscar só pra te dar
                     F4+(7/9)               E7M(9)
Se bem que o brilho dela nem se compara ao seu
                    F#4(7/9)            
Deixa eu te dar um beijo vou mostrar 
          G#m7(9)
O tempo que perdeu
           D#m7              E7M(9)
Que coisa louca, eu já sabia
         A#m7(5-)       D#7(9-)      G#m7(9)
Enquanto eu me arrumava algo me dizia
          D#m7                 E7M(9)
Você vai encontrar alguém que vai mudar
       F#4(7/9)                  B7M 
A sua vida inteira da noite pro dia
                                   E7M(9)
Te filmando eu tava quieto no meu canto
exibições 1.729.035
Acordes para:

    0 comentários

    mostrar mais comentários

    Conseguiu tocar?

    111 tocaram 9 ainda não

    Grave um vídeo tocando Tá Vendo Aquela Lua e mande pra gente!

    00:00 / 00:00
    outros vídeos desta música
    repetir qualidade Automático
    Outros vídeos desta música
    00:00 / 00:00
    Automático
    Capítulos
    • Início
    • Tocando a música
    • Acordes da primeira parte
    • Tocando primeira parte
    • Ensinando ritmo padrão
    • Ensinando ritmo da primeira parte
    • Acordes do refrão
    • Tocando refrão
    • Ensinando ritmo do refrão
    • Dicas para o ritmo
    • Encerramento
    OK