Vontade de Adorar

Eyshila

Tom: E
Intro: B  F#  G#m  E  B  F#  G#m  A5  A#5  B - B


Solo: e|----------------------------------------------------------------11--14-----------11------16---11--16--19---|
      B|------------------------------------9-----9--12----12---12--14-----------12--14------12--------------------|
      G|---------------8--11----------8--------8-------------------------------------------------------------------|
      D|----9---9--11----------9--11-----9-------------------------------------------------------------------------|
      A|-----------------------------------------------------------------------------------------------------------|
      E|-----------------------------------------------------------------------------------------------------------|


B                 E                 B    E
Há uma vontade em mim de adorar ao Senhor
B                 E                 F#      D#/G
Há uma vontade em mim de exaltar o seu nome
         G#m                F#/A#
E quando isso acontece não quero mais parar.
      B                    C#4     C#
As mãos se levantam meu corpo quer pular
C#m         F#                   C#m          F#
Ah  ah  ah  ah que vontade de adorar! Ah  ah  ah
B           F#  G#m               E
Ah  ah  ah  ah  há uma vontade em mim de adorar
B           F#  G#m                           E                B
Ah  ah  ah  ah  eu te amo meu Senhor   E pra sempre vou te amar


 Solo: B  F#  G#m  E  B  F#  G#m  A5  A#5  B - B
      e|----------------------------------------------------------------11--14-----------11------16---11--16--19---|
      B|------------------------------------9-----9--12----12---12--14-----------12--14------12--------------------|
      G|---------------8--11----------8--------8-------------------------------------------------------------------|
      D|----9---9--11----------9--11-----9-------------------------------------------------------------------------|
      A|-----------------------------------------------------------------------------------------------------------|
      E|-----------------------------------------------------------------------------------------------------------|


   E                    B       E
Quando eu estou na batalha eu preciso adorar
B                 E              F#
Quando eu recebo vitória eu preciso adorar também
         G#m                F#/A#
E quando isso acontece não quero mais parar.
      B                    C#4     C#
As mãos se levantam meu corpo quer pular
C#m         F#               C#m                F#
Ah  ah  ah que vontade de adorar! Ah  ah  ah  ah       Volta Refrão

B            F#                    G#m                 E
Esse é o dia que o Senhor me deu  Quero adorar  quero adorar
B            F#                    G#m                 E
os homens: Esse é o dia que o Senhor me deu  Quero adorar  quero adorar
             B                                 G#m
as mulheres:Esse é o dia que o Senhor me deu  Quero adorar  quero adorar
           B            F#                                   G#m                     E
todo mundo:Esse é o dia que o Senhor me deu  Que vontade de adorar  Que vontade de adorar     Volta Refrão
Página 1 / 1

Letras e título
Acordes e artista

resetar configurações