Cifra Club

Aprenda

De volta para o futuro

Fabio Brazza

Tab de baixo: Principal
A música é quase a mesma coisa o tempo todo, só mudando na hora do refrão.

Este é o groove da música.É apenas uma base que permite improvisos.
G|-----------------------------------------------------------------------------------------------------|
D|-----------------------------------------------------------------------------------------------------|
A|--5-5--4-4----------------------------------------------------------------------------------------|
E|---------------2-2---------------------------------------------------------------------------------|

Refrão esta aqui.

G|-----------------------------------------------------------------------------------------------------|
D|-----------------------------------------------------------------------------------------------------|
A|--5--4-----------------------------------------------------------------------------------------|
E|---------2---------------------------------------------------------------------------------|
Compositor não encontrado.
Colaboração e revisão:
  • Gabriel Vizane
1.725 exibições

0 comentários

Ver todos os comentários

Conseguiu tocar?

0 Tocaram 0 Ainda não

Grave um vídeo tocando De volta para o futuro e nos envie!

00:00 / 00:00
Outros vídeos desta música
Repetir Qualidade Automático
Outros vídeos desta música
00:00 / 00:00
Automático

Cifra Club Pro

Aproveite o Cifra Club com benefícios exclusivos e sem anúncios
Cifra Club Pro
Aproveite o Cifra Club com benefícios exclusivos e sem anúncios
OK