Cifra Club

Eu Vim (Pra Te Adorar Senhor)

Fábio Justiniano

Cifra: Principal (violão e guitarra)
exibições 981
Tom: D
Intro: F#m  A  B  F#m  A  B
E|-12-7--14-9---7-17--17-12-------------------------------------------------------------------|
B|--------------------------------------------------------------------------------------------|
G|----------------------------------14-14-14-14--16-16-16-16--14-14-14-14--16-/-18--14--16----|
D|--------------------------------14-14-14-14--16-16-16-16--14-14-14-14-----------------------|
A|--------------------------------------------------------------------------------------------|
E|--------------------------------------------------------------------------------------------|

     F#m         A         B                            F#m           B
Eu vim, eu vim, eu vim pra ti adorar Senhor
     F#m         A         B                            F#m           B
Eu vim, eu vim, eu vim pra ti adorar Senhor

       F#m                 A
È o pai da criação, unigênito de Deus
B                              F#m                  B
Aquele que morreu, mas a morte venceu

       F#m                 A
É o príncipe da paz, amigo fiel
B                              F#m                  B
O caminho e verdade, o filho de Deus

       F#m                 A
A estrela da manhã, Jesus o bom pastor
B                              F#m                  B
O principio e o fim, o meu salvador

       F#m                 A
Justo juiz, rei do trono de Davi
B                              F#m                  B
Ninguém verá a Deus, sem conhecer a ti
Solo:
E|--------------------------------------17-19b-17-14--17-16-14-X3--------
B|-16b-X3-------------------------17/19------------------------17-16-14---
G|-16b---14-------------14-16b-14-----------------------------------------
D|---------16-----14-16---------------------------------------------------
A|-----------14-16--------------------------------------------------------
E|------------------------------------------------------------------------

Baixo
G|---------------------------------------------------------------------
D|---------------------------------------------------------------------
A|--------------2-4-2-4-2----------2-----------------------------------
E|-2-2-5-2-5-5-------------5-2-2-5---5-2-------------------------------
/=
Acordes para:
    Composição: Fábio Justiniano Colaboração e revisão:
    • Fábio Justiniano

    0 comentários

    mostrar mais comentários

    Conseguiu tocar?

    1 tocaram 0 ainda não

    Grave um vídeo tocando Eu Vim (Pra Te Adorar Senhor) e mande pra gente!

    00:00 / 00:00
    outros vídeos desta música
    repetir qualidade Automático
    Outro vídeos desta música
    00:00 / 00:00
    Automático
    OK