Cifra Club

Aprenda

Ashes to Ashes

Faith No More

Cifra: Principal (violão e guitarra)
tom: F
(Afinação Standart)
Essa música é tocada com afinação abaixo, mas eu transcrevi desse 
jeito para ser tocada com afinação standart

 

RIFF 1 (4 VEZES)

E|-----------|------------|----------|
B|-----------|------------|----------|
G|-----------|------------|----------|
D|-----------|------------|----------|
A|--1--1-----|---3/5\3----|-------5--|
E|--0--0-----|------------|----0-----|

(RIFF 2)

Bb

|---6--6--6-6-6---|
|---6--6--6-6-6---|
|---7--7--7-7-7---|
|-----------------|
|-----------------|
|-----------------|

(RIFF 3)

E|------------|------------|----------|
B|------------|------------|----------|
G|------------|------------|----------|
D|------------|------------|----------|
A|--1--1------|---5\3------|-------5--|
E|--0--0------|------------|----0-----|

(RIFF 4)

E|---------------|------------|--------|
B|---------------|------------|--------|
G|---------------|------------|--------|
D|---------------|--3-0-30----|--------|
A|--1--1--1-1----|--1-01-0----|--------|
E|---0--0--0--0--|--1-01-0----|---0----|

 

I want them to know it's me
It's on my head (RIFF 2) 2X
I'll point the finger at me
It's on my head (RIFF 2) 2X

Give it all to you (RIFF 3) 2X
Then I'll be closer (RIFF 3) 2X


F5 C5
Smiling with the mouth of the ocean

F5 Bb5
And I'll wave to you with the arms of the mountain
I'll see you

(RIFF 1) 4X



I will let you shout no more
It's on my head (RIFF 2) 2X
I'll pick you up from the floor
It's on my head (RIFF 2) 2X
I'll let you even the score
It's on my head (RIFF 2) 2X

Give it all to you (RIFF 3) 2X
Then I'll be closer (RIFF 3) 2X


F5 C5
Smiling with the mouth of the ocean

F5 Bb5
And I'll wave to you with the arms of the mountain
I'll see you

(RIFF 1) 4X

 

|---12--10------------------------------|----------------------------|--------------------
|-------------10---------13/(15)--------|----------------------------| -------------------
|-----------------------------------10--|-------------14/13----------|--------10/(12)--3--
|---------------------------------------|---15--15-----------12------|--12----------------
|---------------------------------------|----------------------------| -------------------
|---------------------------------------|----------------------------|--------------------

 

Give the same to me then I'll be closer, closer
Give the same to me then I'll be closer, closer


F5 C5
Smiling with the mouth of the ocean
F5 Bb5

And I'll wave to you with the arms of the mountain


RIFF 4 ATÉ ACABAR A MÚSICA!!!
Give the same to me then I'll be closer, closer
Give the same to me then I'll be closer, closer
Composição de Bill Gould / Jon Hudson / Mike Bordin / Mike Patton / Roddy Bottum
Colaboração e revisão:
  • Wanderson Paula
15.172 exibições
    • ½ Tom
    • A
    • Bb
    • B
    • C
    • Db
    • D
    • Eb
    • E
    • F
    • F#
    • G
    • Ab
  • Adicionar à lista

    0 comentários

    Ver todos os comentários

    Conseguiu tocar?

    0 Tocaram 0 Ainda não

    Grave um vídeo tocando Ashes to Ashes e nos envie!

    00:00 / 00:00
    outros vídeos desta música
    repetir qualidade Automático
    Outros vídeos desta música
    00:00 / 00:00
    Automático

    Cifra Club Pro

    Aproveite o Cifra Club com benefícios exclusivos e sem anúncios
    Cifra Club Pro
    Aproveite o Cifra Club com benefícios exclusivos e sem anúncios
    OK